  0
SECTION
  2
HEADER
  9
$ACADVER
  1
AC1021
  9
$ACADMAINTVER
 70
     1
  9
$DWGCODEPAGE
  3
ANSI_1254
  9
$LASTSAVEDBY
  1
silab
  9
$INSBASE
 10
0.0
 20
0.0
 30
0.0
  9
$EXTMIN
 10
2740.927702063584
 20
650.3411625081366
 30
-0.0015258207003583
  9
$EXTMAX
 10
3341.308432543871
 20
1067.177881323643
 30
0.0000000349246037
  9
$LIMMIN
 10
0.0
 20
0.0
  9
$LIMMAX
 10
420.0
 20
297.0
  9
$ORTHOMODE
 70
     1
  9
$REGENMODE
 70
     1
  9
$FILLMODE
 70
     1
  9
$QTEXTMODE
 70
     0
  9
$MIRRTEXT
 70
     0
  9
$LTSCALE
 40
1.0
  9
$ATTMODE
 70
     1
  9
$TEXTSIZE
 40
2.5
  9
$TRACEWID
 40
1.0
  9
$TEXTSTYLE
  7
Standard
  9
$CLAYER
  8
NURUS ELEVATION
  9
$CELTYPE
  6
ByLayer
  9
$CECOLOR
 62
   256
  9
$CELTSCALE
 40
1.0
  9
$DISPSILH
 70
     0
  9
$DIMSCALE
 40
1.0
  9
$DIMASZ
 40
7.0
  9
$DIMEXO
 40
0.0625
  9
$DIMDLI
 40
0.38
  9
$DIMRND
 40
0.0
  9
$DIMDLE
 40
0.0
  9
$DIMEXE
 40
0.18
  9
$DIMTP
 40
0.0
  9
$DIMTM
 40
0.0
  9
$DIMTXT
 40
7.0
  9
$DIMCEN
 40
0.09
  9
$DIMTSZ
 40
0.0
  9
$DIMTOL
 70
     0
  9
$DIMLIM
 70
     0
  9
$DIMTIH
 70
     0
  9
$DIMTOH
 70
     0
  9
$DIMSE1
 70
     0
  9
$DIMSE2
 70
     0
  9
$DIMTAD
 70
     0
  9
$DIMZIN
 70
     0
  9
$DIMBLK
  1

  9
$DIMASO
 70
     1
  9
$DIMSHO
 70
     1
  9
$DIMPOST
  1

  9
$DIMAPOST
  1

  9
$DIMALT
 70
     0
  9
$DIMALTD
 70
     2
  9
$DIMALTF
 40
25.4
  9
$DIMLFAC
 40
10.0
  9
$DIMTOFL
 70
     0
  9
$DIMTVP
 40
0.0
  9
$DIMTIX
 70
     0
  9
$DIMSOXD
 70
     0
  9
$DIMSAH
 70
     0
  9
$DIMBLK1
  1

  9
$DIMBLK2
  1

  9
$DIMSTYLE
  2
yeni
  9
$DIMCLRD
 70
     0
  9
$DIMCLRE
 70
     0
  9
$DIMCLRT
 70
     0
  9
$DIMTFAC
 40
1.0
  9
$DIMGAP
 40
0.09
  9
$DIMJUST
 70
     0
  9
$DIMSD1
 70
     0
  9
$DIMSD2
 70
     0
  9
$DIMTOLJ
 70
     1
  9
$DIMTZIN
 70
     0
  9
$DIMALTZ
 70
     0
  9
$DIMALTTZ
 70
     0
  9
$DIMUPT
 70
     0
  9
$DIMDEC
 70
     0
  9
$DIMTDEC
 70
     0
  9
$DIMALTU
 70
     2
  9
$DIMALTTD
 70
     2
  9
$DIMTXSTY
  7
ARIAL
  9
$DIMAUNIT
 70
     0
  9
$DIMADEC
 70
     0
  9
$DIMALTRND
 40
0.0
  9
$DIMAZIN
 70
     0
  9
$DIMDSEP
 70
    46
  9
$DIMATFIT
 70
     3
  9
$DIMFRAC
 70
     0
  9
$DIMLDRBLK
  1

  9
$DIMLUNIT
 70
     2
  9
$DIMLWD
 70
    -2
  9
$DIMLWE
 70
    -2
  9
$DIMTMOVE
 70
     0
  9
$DIMFXL
 40
1.0
  9
$DIMFXLON
 70
     0
  9
$DIMJOGANG
 40
0.7853981633974483
  9
$DIMTFILL
 70
     0
  9
$DIMTFILLCLR
 70
     0
  9
$DIMARCSYM
 70
     0
  9
$DIMLTYPE
  6

  9
$DIMLTEX1
  6

  9
$DIMLTEX2
  6

  9
$LUNITS
 70
     2
  9
$LUPREC
 70
     4
  9
$SKETCHINC
 40
1.0
  9
$FILLETRAD
 40
0.0
  9
$AUNITS
 70
     0
  9
$AUPREC
 70
     0
  9
$MENU
  1
.
  9
$ELEVATION
 40
0.0
  9
$PELEVATION
 40
0.0
  9
$THICKNESS
 40
0.0
  9
$LIMCHECK
 70
     0
  9
$CHAMFERA
 40
0.0
  9
$CHAMFERB
 40
0.0
  9
$CHAMFERC
 40
0.0
  9
$CHAMFERD
 40
0.0
  9
$SKPOLY
 70
     0
  9
$TDCREATE
 40
2457407.453519387
  9
$TDUCREATE
 40
2457407.370186053
  9
$TDUPDATE
 40
2457442.716751517
  9
$TDUUPDATE
 40
2457442.633418183
  9
$TDINDWG
 40
0.8406530440
  9
$TDUSRTIMER
 40
0.8406530440
  9
$USRTIMER
 70
     1
  9
$ANGBASE
 50
0.0
  9
$ANGDIR
 70
     0
  9
$PDMODE
 70
     0
  9
$PDSIZE
 40
0.0
  9
$PLINEWID
 40
0.0
  9
$SPLFRAME
 70
     0
  9
$SPLINETYPE
 70
     6
  9
$SPLINESEGS
 70
     8
  9
$HANDSEED
  5
29836
  9
$SURFTAB1
 70
     6
  9
$SURFTAB2
 70
     6
  9
$SURFTYPE
 70
     6
  9
$SURFU
 70
     6
  9
$SURFV
 70
     6
  9
$UCSBASE
  2

  9
$UCSNAME
  2

  9
$UCSORG
 10
0.0
 20
0.0
 30
0.0
  9
$UCSXDIR
 10
1.0
 20
0.0
 30
0.0
  9
$UCSYDIR
 10
0.0
 20
1.0
 30
0.0
  9
$UCSORTHOREF
  2

  9
$UCSORTHOVIEW
 70
     0
  9
$UCSORGTOP
 10
0.0
 20
0.0
 30
0.0
  9
$UCSORGBOTTOM
 10
0.0
 20
0.0
 30
0.0
  9
$UCSORGLEFT
 10
0.0
 20
0.0
 30
0.0
  9
$UCSORGRIGHT
 10
0.0
 20
0.0
 30
0.0
  9
$UCSORGFRONT
 10
0.0
 20
0.0
 30
0.0
  9
$UCSORGBACK
 10
0.0
 20
0.0
 30
0.0
  9
$PUCSBASE
  2

  9
$PUCSNAME
  2

  9
$PUCSORG
 10
0.0
 20
0.0
 30
0.0
  9
$PUCSXDIR
 10
1.0
 20
0.0
 30
0.0
  9
$PUCSYDIR
 10
0.0
 20
1.0
 30
0.0
  9
$PUCSORTHOREF
  2

  9
$PUCSORTHOVIEW
 70
     0
  9
$PUCSORGTOP
 10
0.0
 20
0.0
 30
0.0
  9
$PUCSORGBOTTOM
 10
0.0
 20
0.0
 30
0.0
  9
$PUCSORGLEFT
 10
0.0
 20
0.0
 30
0.0
  9
$PUCSORGRIGHT
 10
0.0
 20
0.0
 30
0.0
  9
$PUCSORGFRONT
 10
0.0
 20
0.0
 30
0.0
  9
$PUCSORGBACK
 10
0.0
 20
0.0
 30
0.0
  9
$USERI1
 70
     0
  9
$USERI2
 70
     0
  9
$USERI3
 70
     0
  9
$USERI4
 70
     0
  9
$USERI5
 70
     0
  9
$USERR1
 40
0.0
  9
$USERR2
 40
0.0
  9
$USERR3
 40
0.0
  9
$USERR4
 40
0.0
  9
$USERR5
 40
0.0
  9
$WORLDVIEW
 70
     1
  9
$SHADEDGE
 70
     3
  9
$SHADEDIF
 70
    70
  9
$TILEMODE
 70
     1
  9
$MAXACTVP
 70
    64
  9
$PINSBASE
 10
0.0
 20
0.0
 30
0.0
  9
$PLIMCHECK
 70
     0
  9
$PEXTMIN
 10
0.0
 20
0.0
 30
0.0
  9
$PEXTMAX
 10
0.0
 20
0.0
 30
0.0
  9
$PLIMMIN
 10
0.0
 20
0.0
  9
$PLIMMAX
 10
12.0
 20
9.0
  9
$UNITMODE
 70
     0
  9
$VISRETAIN
 70
     1
  9
$PLINEGEN
 70
     0
  9
$PSLTSCALE
 70
     1
  9
$TREEDEPTH
 70
  3020
  9
$CMLSTYLE
  2
Standard
  9
$CMLJUST
 70
     0
  9
$CMLSCALE
 40
20.0
  9
$PROXYGRAPHICS
 70
     1
  9
$MEASUREMENT
 70
     1
  9
$CELWEIGHT
370
    -1
  9
$ENDCAPS
280
     0
  9
$JOINSTYLE
280
     0
  9
$LWDISPLAY
290
     0
  9
$INSUNITS
 70
     5
  9
$HYPERLINKBASE
  1

  9
$STYLESHEET
  1

  9
$XEDIT
290
     1
  9
$CEPSNTYPE
380
     0
  9
$PSTYLEMODE
290
     1
  9
$FINGERPRINTGUID
  2
{CEA9902F-9A7E-4C13-BC90-F2CD4141A0CA}
  9
$VERSIONGUID
  2
{465B61EF-5F6B-496F-A146-5CD4A56271F1}
  9
$EXTNAMES
290
     1
  9
$PSVPSCALE
 40
0.0
  9
$OLESTARTUP
290
     0
  9
$SORTENTS
280
   127
  9
$INDEXCTL
280
     0
  9
$HIDETEXT
280
     1
  9
$XCLIPFRAME
290
     0
  9
$HALOGAP
280
     0
  9
$OBSCOLOR
 70
   257
  9
$OBSLTYPE
280
     0
  9
$INTERSECTIONDISPLAY
280
     0
  9
$INTERSECTIONCOLOR
 70
   257
  9
$DIMASSOC
280
     2
  9
$PROJECTNAME
  1

  9
$CAMERADISPLAY
290
     0
  9
$LENSLENGTH
 40
50.0
  9
$CAMERAHEIGHT
 40
0.0
  9
$STEPSPERSEC
 40
2.0
  9
$STEPSIZE
 40
6.0
  9
$3DDWFPREC
 40
2.0
  9
$PSOLWIDTH
 40
5.0
  9
$PSOLHEIGHT
 40
80.0
  9
$LOFTANG1
 40
1.570796326794896
  9
$LOFTANG2
 40
1.570796326794896
  9
$LOFTMAG1
 40
0.0
  9
$LOFTMAG2
 40
0.0
  9
$LOFTPARAM
 70
     7
  9
$LOFTNORMALS
280
     1
  9
$LATITUDE
 40
37.795
  9
$LONGITUDE
 40
-122.394
  9
$NORTHDIRECTION
 40
0.0
  9
$TIMEZONE
 70
 -8000
  9
$LIGHTGLYPHDISPLAY
280
     1
  9
$TILEMODELIGHTSYNCH
280
     1
  9
$CMATERIAL
347
EC
  9
$SOLIDHIST
280
     1
  9
$SHOWHIST
280
     1
  9
$DWFFRAME
280
     2
  9
$DGNFRAME
280
     0
  9
$REALWORLDSCALE
290
     1
  9
$INTERFERECOLOR
 62
     1
  9
$INTERFEREOBJVS
345
F9
  9
$INTERFEREVPVS
346
F6
  9
$CSHADOW
280
     0
  9
$SHADOWPLANELOCATION
 40
0.0
  0
ENDSEC
  0
SECTION
  2
CLASSES
  0
CLASS
  1
ACDBDICTIONARYWDFLT
  2
AcDbDictionaryWithDefault
  3
ObjectDBX Classes
 90
        0
 91
        1
280
     0
281
     0
  0
CLASS
  1
ACDBPLACEHOLDER
  2
AcDbPlaceHolder
  3
ObjectDBX Classes
 90
        0
 91
        1
280
     0
281
     0
  0
CLASS
  1
LAYOUT
  2
AcDbLayout
  3
ObjectDBX Classes
 90
        0
 91
        3
280
     0
281
     0
  0
CLASS
  1
DICTIONARYVAR
  2
AcDbDictionaryVar
  3
ObjectDBX Classes
 90
        0
 91
       11
280
     0
281
     0
  0
CLASS
  1
TABLESTYLE
  2
AcDbTableStyle
  3
ObjectDBX Classes
 90
     4095
 91
        1
280
     0
281
     0
  0
CLASS
  1
MATERIAL
  2
AcDbMaterial
  3
ObjectDBX Classes
 90
     1024
 91
        3
280
     0
281
     0
  0
CLASS
  1
VISUALSTYLE
  2
AcDbVisualStyle
  3
ObjectDBX Classes
 90
     4095
 91
       26
280
     0
281
     0
  0
CLASS
  1
SORTENTSTABLE
  2
AcDbSortentsTable
  3
ObjectDBX Classes
 90
        0
 91
        8
280
     0
281
     0
  0
CLASS
  1
ACAD_EVALUATION_GRAPH
  2
AcDbEvalGraph
  3
ObjectDBX Classes
 90
     1153
 91
        0
280
     0
281
     0
  0
CLASS
  1
ACAECUSTOBJ
  2
AcAeEditorObj
  3
AcAeEditorObj
 90
     1024
 91
        0
280
     0
281
     0
  0
CLASS
  1
ACDB_DYNAMICBLOCKPURGEPREVENTER_VERSION
  2
AcDbDynamicBlockPurgePreventer
  3
ObjectDBX Classes
 90
     1153
 91
        0
280
     0
281
     0
  0
CLASS
  1
DIMASSOC
  2
AcDbDimAssoc
  3
"AcDbDimAssoc|Product Desc:     AcDim ARX App For Dimension|Company:          Autodesk, Inc.|WEB Address:      www.autodesk.com"
 90
        0
 91
        0
280
     0
281
     0
  0
CLASS
  1
SCALE
  2
AcDbScale
  3
ObjectDBX Classes
 90
     1153
 91
       17
280
     0
281
     0
  0
CLASS
  1
MLEADERSTYLE
  2
AcDbMLeaderStyle
  3
ACDB_MLEADERSTYLE_CLASS
 90
     4095
 91
        1
280
     0
281
     0
  0
CLASS
  1
ACDBSECTIONVIEWSTYLE
  2
AcDbSectionViewStyle
  3
ObjectDBX Classes
 90
     1025
 91
        1
280
     0
281
     0
  0
CLASS
  1
ACDBDETAILVIEWSTYLE
  2
AcDbDetailViewStyle
  3
ObjectDBX Classes
 90
     1025
 91
        1
280
     0
281
     0
  0
CLASS
  1
CELLSTYLEMAP
  2
AcDbCellStyleMap
  3
ObjectDBX Classes
 90
     1152
 91
        1
280
     0
281
     0
  0
CLASS
  1
RASTERVARIABLES
  2
AcDbRasterVariables
  3
ISM
 90
        0
 91
        1
280
     0
281
     0
  0
CLASS
  1
IMAGEDEF
  2
AcDbRasterImageDef
  3
ISM
 90
        0
 91
        1
280
     0
281
     0
  0
CLASS
  1
IMAGEDEF_REACTOR
  2
AcDbRasterImageDefReactor
  3
ISM
 90
        1
 91
        1
280
     0
281
     0
  0
CLASS
  1
IMAGE
  2
AcDbRasterImage
  3
ISM
 90
     2175
 91
        1
280
     0
281
     1
  0
ENDSEC
  0
SECTION
  2
TABLES
  0
TABLE
  2
VPORT
  5
8
330
0
100
AcDbSymbolTable
 70
     1
  0
VPORT
  5
EA
330
8
100
AcDbSymbolTableRecord
100
AcDbViewportTableRecord
  2
*Active
 70
     0
 10
0.0
 20
0.0
 11
1.0
 21
1.0
 12
3041.118067303727
 22
858.7595219158899
 13
0.0
 23
0.0
 14
10.0
 24
10.0
 15
10.0
 25
10.0
 16
0.0
 26
0.0
 36
1.0
 17
0.0
 27
0.0
 37
0.0
 40
419.9243982141401
 41
2.038318912237329
 42
50.0
 43
0.0
 44
0.0
 50
0.0
 51
0.0
 71
     0
 72
  1000
 73
     1
 74
     3
 75
     0
 76
     0
 77
     0
 78
     0
281
     0
 65
     1
110
0.0
120
0.0
130
0.0
111
1.0
121
0.0
131
0.0
112
0.0
122
1.0
132
0.0
 79
     0
146
0.0
348
F5
 60
     2
 61
     5
292
     1
282
     1
141
0.0
142
0.0
 63
   250
421
  3355443
1001
ACAD_NAV_VCDISPLAY
1070
     3
  0
ENDTAB
  0
TABLE
  2
LTYPE
  5
5
330
0
100
AcDbSymbolTable
 70
     1
  0
LTYPE
  5
14
330
5
100
AcDbSymbolTableRecord
100
AcDbLinetypeTableRecord
  2
ByBlock
 70
     0
  3

 72
    65
 73
     0
 40
0.0
  0
LTYPE
  5
15
330
5
100
AcDbSymbolTableRecord
100
AcDbLinetypeTableRecord
  2
ByLayer
 70
     0
  3

 72
    65
 73
     0
 40
0.0
  0
LTYPE
  5
16
330
5
100
AcDbSymbolTableRecord
100
AcDbLinetypeTableRecord
  2
Continuous
 70
     0
  3
Solid line
 72
    65
 73
     0
 40
0.0
  0
ENDTAB
  0
TABLE
  2
LAYER
  5
2
102
{ACAD_XDICTIONARY
360
742
102
}
330
0
100
AcDbSymbolTable
 70
     7
  0
LAYER
  5
10
102
{ACAD_XDICTIONARY
360
10211
102
}
330
2
100
AcDbSymbolTableRecord
100
AcDbLayerTableRecord
  2
0
 70
     0
 62
     7
  6
Continuous
370
    -3
390
F
347
EE
  0
LAYER
  5
73C
102
{ACAD_XDICTIONARY
360
10213
102
}
330
2
100
AcDbSymbolTableRecord
100
AcDbLayerTableRecord
  2
NURUS FURNITURE
 70
     0
 62
     7
  6
Continuous
370
    -3
390
F
347
EE
1001
AcAecLayerStandard
1000

1000

  0
LAYER
  5
5C18
330
2
100
AcDbSymbolTableRecord
100
AcDbLayerTableRecord
  2
DEFPOINTS
 70
     0
 62
     7
  6
Continuous
290
     0
370
    -3
390
F
347
EE
  0
LAYER
  5
F9D9
102
{ACAD_XDICTIONARY
360
10215
102
}
330
2
100
AcDbSymbolTableRecord
100
AcDbLayerTableRecord
  2
NURUS CODE
 70
     2
 62
     7
  6
Continuous
370
    -3
390
F
347
EE
1001
AcAecLayerStandard
1000

1000

1001
AcCmTransparency
1071
        0
  0
LAYER
  5
F9DC
102
{ACAD_XDICTIONARY
360
10219
102
}
330
2
100
AcDbSymbolTableRecord
100
AcDbLayerTableRecord
  2
NURUS ELEVATION
 70
     2
 62
     7
  6
Continuous
370
    -3
390
F
347
EE
1001
AcAecLayerStandard
1000

1000

1001
AcCmTransparency
1071
        0
  0
LAYER
  5
F9DD
102
{ACAD_XDICTIONARY
360
1021B
102
}
330
2
100
AcDbSymbolTableRecord
100
AcDbLayerTableRecord
  2
NURUS TEXT
 70
     2
 62
     7
  6
Continuous
370
    -3
390
F
347
EE
1001
AcAecLayerStandard
1000

1000

1001
AcCmTransparency
1071
        0
  0
ENDTAB
  0
TABLE
  2
STYLE
  5
3
330
0
100
AcDbSymbolTable
 70
     2
  0
STYLE
  5
11
330
3
100
AcDbSymbolTableRecord
100
AcDbTextStyleTableRecord
  2
Standard
 70
     0
 40
0.0
 41
1.0
 50
0.0
 71
     0
 42
2.5
  3
txt
  4

  0
STYLE
  5
5C1B
330
3
100
AcDbSymbolTableRecord
100
AcDbTextStyleTableRecord
  2
ARIAL
 70
     0
 40
0.0
 41
1.0
 50
0.0
 71
     0
 42
0.2
  3
arial.ttf
  4

1001
ACAD
1000
Arial
1071
       34
  0
ENDTAB
  0
TABLE
  2
VIEW
  5
6
330
0
100
AcDbSymbolTable
 70
     4
  0
ENDTAB
  0
TABLE
  2
UCS
  5
7
330
0
100
AcDbSymbolTable
 70
     0
  0
ENDTAB
  0
TABLE
  2
APPID
  5
9
330
0
100
AcDbSymbolTable
 70
    15
  0
APPID
  5
12
330
9
100
AcDbSymbolTableRecord
100
AcDbRegAppTableRecord
  2
ACAD
 70
     0
  0
APPID
  5
9E
330
9
100
AcDbSymbolTableRecord
100
AcDbRegAppTableRecord
  2
ACAD_PSEXT
 70
     0
  0
APPID
  5
73F
330
9
100
AcDbSymbolTableRecord
100
AcDbRegAppTableRecord
  2
AcAecLayerStandard
 70
     0
  0
APPID
  5
740
330
9
100
AcDbSymbolTableRecord
100
AcDbRegAppTableRecord
  2
AcDbBlockRepETag
 70
     0
  0
APPID
  5
741
330
9
100
AcDbSymbolTableRecord
100
AcDbRegAppTableRecord
  2
AcDbDynamicBlockGUID
 70
     0
  0
APPID
  5
828
330
9
100
AcDbSymbolTableRecord
100
AcDbRegAppTableRecord
  2
ACAUTHENVIRON
 70
     0
  0
APPID
  5
833
330
9
100
AcDbSymbolTableRecord
100
AcDbRegAppTableRecord
  2
ACAD_NAV_VCDISPLAY
 70
     0
  0
APPID
  5
5383
330
9
100
AcDbSymbolTableRecord
100
AcDbRegAppTableRecord
  2
ACAD_MATERIAL_MAPPER
 70
     0
  0
APPID
  5
A3AC
330
9
100
AcDbSymbolTableRecord
100
AcDbRegAppTableRecord
  2
AcDbDynamicBlockTrueName
 70
     0
  0
APPID
  5
F6A1
330
9
100
AcDbSymbolTableRecord
100
AcDbRegAppTableRecord
  2
ACAD_EXEMPT_FROM_CAD_STANDARDS
 70
     0
  0
APPID
  5
F9DA
330
9
100
AcDbSymbolTableRecord
100
AcDbRegAppTableRecord
  2
AcCmTransparency
 70
     0
  0
APPID
  5
10313
330
9
100
AcDbSymbolTableRecord
100
AcDbRegAppTableRecord
  2
ACAD_MLEADERVER
 70
     0
  0
APPID
  5
282ED
330
9
100
AcDbSymbolTableRecord
100
AcDbRegAppTableRecord
  2
ACAD_DSTYLE_DIMJAG
 70
     0
  0
APPID
  5
282EE
330
9
100
AcDbSymbolTableRecord
100
AcDbRegAppTableRecord
  2
ACAD_DSTYLE_DIMTALN
 70
     0
  0
APPID
  5
2874D
330
9
100
AcDbSymbolTableRecord
100
AcDbRegAppTableRecord
  2
DCO15
 70
     0
  0
ENDTAB
  0
TABLE
  2
DIMSTYLE
  5
A
330
0
100
AcDbSymbolTable
 70
     3
100
AcDbDimStyleTable
 71
     2
340
D981
340
73E
  0
DIMSTYLE
105
73E
330
A
100
AcDbSymbolTableRecord
100
AcDbDimStyleTableRecord
  2
STANDARD
 70
     0
340
11
  0
DIMSTYLE
105
D981
330
A
100
AcDbSymbolTableRecord
100
AcDbDimStyleTableRecord
  2
yeni
 70
     0
 41
7.0
 73
     0
 74
     0
140
7.0
144
10.0
271
     0
272
     0
340
5C1B
  0
ENDTAB
  0
TABLE
  2
BLOCK_RECORD
  5
1
330
0
100
AcDbSymbolTable
 70
    14
  0
BLOCK_RECORD
  5
1F
102
{ACAD_XDICTIONARY
360
B106
102
}
330
1
100
AcDbSymbolTableRecord
100
AcDbBlockTableRecord
  2
*Model_Space
340
22
 70
     0
280
     1
281
     0
  0
BLOCK_RECORD
  5
D2
330
1
100
AcDbSymbolTableRecord
100
AcDbBlockTableRecord
  2
*Paper_Space
340
D3
 70
     0
280
     1
281
     0
  0
BLOCK_RECORD
  5
D6
330
1
100
AcDbSymbolTableRecord
100
AcDbBlockTableRecord
  2
*Paper_Space0
340
D7
 70
     0
280
     1
281
     0
  0
BLOCK_RECORD
  5
2957A
102
{ACAD_XDICTIONARY
360
29583
102
}
330
1
100
AcDbSymbolTableRecord
100
AcDbBlockTableRecord
  2
Drop Kare Masa
340
0
102
{BLKREFS
331
29587
102
}
 70
     5
280
     1
281
     0
  0
BLOCK_RECORD
  5
29588
102
{ACAD_XDICTIONARY
360
2958F
102
}
330
1
100
AcDbSymbolTableRecord
100
AcDbBlockTableRecord
  2
Drop Sandalye
340
0
102
{BLKREFS
331
29593
102
}
 70
     5
280
     1
281
     0
  0
BLOCK_RECORD
  5
29594
102
{ACAD_XDICTIONARY
360
2959F
102
}
330
1
100
AcDbSymbolTableRecord
100
AcDbBlockTableRecord
  2
Drop Yuvarlak Masa
340
0
102
{BLKREFS
331
295A3
102
}
 70
     5
280
     1
281
     0
  0
BLOCK_RECORD
  5
29670
330
1
100
AcDbSymbolTableRecord
100
AcDbBlockTableRecord
  2
Drop Chair_SIDE
340
0
310
2800000020000000200000000100080000000000000400000000000000000000000000000000000000000000000080000080000000808000800000008000800080800000C0C0C000C0DCC000F0CAA6000020400000206000002080000020A0000020C0000020E00000400000004020000040400000406000004080000040A0
310
000040C0000040E00000600000006020000060400000606000006080000060A0000060C0000060E00000800000008020000080400000806000008080000080A0000080C0000080E00000A0000000A0200000A0400000A0600000A0800000A0A00000A0C00000A0E00000C0000000C0200000C0400000C0600000C0800000C0
310
A00000C0C00000C0E00000E0000000E0200000E0400000E0600000E0800000E0A00000E0C00000E0E00040000000400020004000400040006000400080004000A0004000C0004000E00040200000402020004020400040206000402080004020A0004020C0004020E000404000004040200040404000404060004040800040
310
40A0004040C0004040E00040600000406020004060400040606000406080004060A0004060C0004060E00040800000408020004080400040806000408080004080A0004080C0004080E00040A0000040A0200040A0400040A0600040A0800040A0A00040A0C00040A0E00040C0000040C0200040C0400040C0600040C08000
310
40C0A00040C0C00040C0E00040E0000040E0200040E0400040E0600040E0800040E0A00040E0C00040E0E00080000000800020008000400080006000800080008000A0008000C0008000E00080200000802020008020400080206000802080008020A0008020C0008020E00080400000804020008040400080406000804080
310
008040A0008040C0008040E00080600000806020008060400080606000806080008060A0008060C0008060E00080800000808020008080400080806000808080008080A0008080C0008080E00080A0000080A0200080A0400080A0600080A0800080A0A00080A0C00080A0E00080C0000080C0200080C0400080C0600080C0
310
800080C0A00080C0C00080C0E00080E0000080E0200080E0400080E0600080E0800080E0A00080E0C00080E0E000C0000000C0002000C0004000C0006000C0008000C000A000C000C000C000E000C0200000C0202000C0204000C0206000C0208000C020A000C020C000C020E000C0400000C0402000C0404000C0406000C0
310
408000C040A000C040C000C040E000C0600000C0602000C0604000C0606000C0608000C060A000C060C000C060E000C0800000C0802000C0804000C0806000C0808000C080A000C080C000C080E000C0A00000C0A02000C0A04000C0A06000C0A08000C0A0A000C0A0C000C0A0E000C0C00000C0C02000C0C04000C0C06000
310
C0C08000C0C0A000F0FBFF00A4A0A000808080000000FF0000FF000000FFFF00FF000000FF00FF00FFFF0000FFFFFF0000000000000000000000000000000000000000000000000000000000000000000000000000000000FFFF000000000000000000000000FFFF00000000000000000000000000000000FFFF0000000000
310
000000000000FF00FF00000000000000000000000000000000FFFF0000000000000000000000FF00FF00000000000000000000000000000000FFFF0000000000000000000000FF00FF00000000000000000000000000000000FFFF0000000000000000000000FF00FF00000000000000000000000000000000FF00FF000000
310
000000000000FF00FF0000000000000000000000000000000000FF00FF000000000000000000FF00FF0000000000000000000000000000000000FF00FF000000000000000000FF00FF000000000000000000000000000000000000FFFF000000000000000000FF00FF000000000000000000000000000000000000FFFF0000
310
00000000000000FF00FF000000000000000000000000000000000000FFFF000000000000000000FF00FF000000000000000000000000000000000000FF00FF0000000000000000FF00FF000000000000000000000000000000000000FF00FF0000000000000000FF00FF000000000000000000000000000000000000FF00FF
310
00000000000000FF00FF00000000000000000000000000000000000000FF00FF00000000000000FF00FF000000000000000000000000000000000000FFFF00FF0000FFFFFF0000FF00FF00000000000000000000000000000000FFFF00FF00FFFFFFFFFFFFFFFFFF00FF00000000000000000000000000000000FFFFFFFFFF
310
FFFFFFFFFFFFFF000000FF00000000000000000000000000000000000000000000000000000000FF0000FF0000000000000000000000000000000000000000000000000000000000FF0000FF0000000000000000000000000000000000000000000000000000000000FFFFFF00000000000000000000000000000000000000
310
0000000000000000000000FFFF000000000000000000000000000000000000000000000000000000000000FFFF00000000000000000000000000000000000000000000000000000000000000FFFF000000000000000000000000000000000000000000000000000000000000FFFF0000000000000000000000000000000000
310
0000000000000000000000000000FFFF000000000000000000000000000000000000000000000000000000000000FFFF000000000000000000000000000000000000000000000000000000000000FF00FF000000000000000000000000000000000000000000000000000000000000FFFF0000000000000000000000000000
310
00000000000000000000000000000000FF000000000000000000000000000000000000000000000000000000000000000000000000000000
102
{BLKREFS
331
296A0
102
}
 70
     5
280
     1
281
     1
  0
BLOCK_RECORD
  5
296A1
330
1
100
AcDbSymbolTableRecord
100
AcDbBlockTableRecord
  2
Drop_FRONT
340
0
310
2800000020000000200000000100080000000000000400000000000000000000000000000000000000000000000080000080000000808000800000008000800080800000C0C0C000C0DCC000F0CAA6000020400000206000002080000020A0000020C0000020E00000400000004020000040400000406000004080000040A0
310
000040C0000040E00000600000006020000060400000606000006080000060A0000060C0000060E00000800000008020000080400000806000008080000080A0000080C0000080E00000A0000000A0200000A0400000A0600000A0800000A0A00000A0C00000A0E00000C0000000C0200000C0400000C0600000C0800000C0
310
A00000C0C00000C0E00000E0000000E0200000E0400000E0600000E0800000E0A00000E0C00000E0E00040000000400020004000400040006000400080004000A0004000C0004000E00040200000402020004020400040206000402080004020A0004020C0004020E000404000004040200040404000404060004040800040
310
40A0004040C0004040E00040600000406020004060400040606000406080004060A0004060C0004060E00040800000408020004080400040806000408080004080A0004080C0004080E00040A0000040A0200040A0400040A0600040A0800040A0A00040A0C00040A0E00040C0000040C0200040C0400040C0600040C08000
310
40C0A00040C0C00040C0E00040E0000040E0200040E0400040E0600040E0800040E0A00040E0C00040E0E00080000000800020008000400080006000800080008000A0008000C0008000E00080200000802020008020400080206000802080008020A0008020C0008020E00080400000804020008040400080406000804080
310
008040A0008040C0008040E00080600000806020008060400080606000806080008060A0008060C0008060E00080800000808020008080400080806000808080008080A0008080C0008080E00080A0000080A0200080A0400080A0600080A0800080A0A00080A0C00080A0E00080C0000080C0200080C0400080C0600080C0
310
800080C0A00080C0C00080C0E00080E0000080E0200080E0400080E0600080E0800080E0A00080E0C00080E0E000C0000000C0002000C0004000C0006000C0008000C000A000C000C000C000E000C0200000C0202000C0204000C0206000C0208000C020A000C020C000C020E000C0400000C0402000C0404000C0406000C0
310
408000C040A000C040C000C040E000C0600000C0602000C0604000C0606000C0608000C060A000C060C000C060E000C0800000C0802000C0804000C0806000C0808000C080A000C080C000C080E000C0A00000C0A02000C0A04000C0A06000C0A08000C0A0A000C0A0C000C0A0E000C0C00000C0C02000C0C04000C0C06000
310
C0C08000C0C0A000F0FBFF00A4A0A000808080000000FF0000FF000000FFFF00FF000000FF00FF00FFFF0000FFFFFF000000000000000000000000000000000000000000000000000000000000000000000000000000FFFFFF0000000000000000000000000000FFFFFF000000000000000000000000FFFFFF000000000000
310
0000000000000000FFFFFF000000000000000000000000FFFFFF0000000000000000000000000000FFFFFF000000000000000000000000FFFFFF0000000000000000000000000000FFFFFF000000000000000000000000FFFFFF0000000000000000000000000000FFFFFF000000000000000000000000FFFFFF0000000000
310
000000000000000000FFFFFF000000000000000000000000FFFFFF0000000000000000000000000000FFFFFF000000000000000000000000FFFFFF0000000000000000000000000000FFFFFF000000000000000000000000FFFFFF0000000000000000000000000000FFFFFF000000000000000000000000FFFFFF00000000
310
00000000000000000000FFFFFF000000000000000000000000FFFFFF0000000000000000000000000000FFFFFF000000000000000000000000FFFFFF0000000000000000000000000000FFFFFF000000000000000000000000FFFFFF0000000000000000000000000000FFFFFF000000000000000000000000FFFFFF000000
310
0000000000000000000000FFFFFF000000000000000000000000FFFFFF0000000000000000000000000000FFFFFF000000000000000000000000FFFFFFFF0000000000FFFF0000000000FFFFFFFF000000000000000000000000FFFFFF00FFFFFFFFFFFFFFFFFFFFFFFF00FFFFFF00000000000000000000000000FFFFFFFF
310
FFFFFFFFFFFFFFFFFFFFFFFFFFFF0000000000000000000000000000FF0000000000FFFF0000FFFF0000000000FF000000000000000000000000000000FF000000000000FFFF000000000000FF00000000000000000000000000000000FF0000000000000000000000000000FF00000000000000000000000000000000FF00
310
00000000000000000000000000FF0000000000000000000000000000000000FF000000000000000000000000FF000000000000000000000000000000000000FF000000000000000000000000FF000000000000000000000000000000000000FF000000000000000000000000FF000000000000000000000000000000000000
310
00FF00000000000000000000FF0000000000000000000000000000000000000000FF00000000000000000000FF000000000000000000000000000000000000000000FFFF000000000000FFFF000000000000000000000000000000000000000000000000FFFF0000FFFF000000000000000000000000000000000000000000
310
00000000000000FFFF0000000000000000000000000000000000000000000000000000000000000000000000000000000000000000000000
102
{BLKREFS
331
296D6
102
}
 70
     5
280
     1
281
     1
  0
BLOCK_RECORD
  5
29750
330
1
100
AcDbSymbolTableRecord
100
AcDbBlockTableRecord
  2
Drop Table_Sq_FRONT
340
0
310
2800000020000000200000000100080000000000000400000000000000000000000000000000000000000000000080000080000000808000800000008000800080800000C0C0C000C0DCC000F0CAA6000020400000206000002080000020A0000020C0000020E00000400000004020000040400000406000004080000040A0
310
000040C0000040E00000600000006020000060400000606000006080000060A0000060C0000060E00000800000008020000080400000806000008080000080A0000080C0000080E00000A0000000A0200000A0400000A0600000A0800000A0A00000A0C00000A0E00000C0000000C0200000C0400000C0600000C0800000C0
310
A00000C0C00000C0E00000E0000000E0200000E0400000E0600000E0800000E0A00000E0C00000E0E00040000000400020004000400040006000400080004000A0004000C0004000E00040200000402020004020400040206000402080004020A0004020C0004020E000404000004040200040404000404060004040800040
310
40A0004040C0004040E00040600000406020004060400040606000406080004060A0004060C0004060E00040800000408020004080400040806000408080004080A0004080C0004080E00040A0000040A0200040A0400040A0600040A0800040A0A00040A0C00040A0E00040C0000040C0200040C0400040C0600040C08000
310
40C0A00040C0C00040C0E00040E0000040E0200040E0400040E0600040E0800040E0A00040E0C00040E0E00080000000800020008000400080006000800080008000A0008000C0008000E00080200000802020008020400080206000802080008020A0008020C0008020E00080400000804020008040400080406000804080
310
008040A0008040C0008040E00080600000806020008060400080606000806080008060A0008060C0008060E00080800000808020008080400080806000808080008080A0008080C0008080E00080A0000080A0200080A0400080A0600080A0800080A0A00080A0C00080A0E00080C0000080C0200080C0400080C0600080C0
310
800080C0A00080C0C00080C0E00080E0000080E0200080E0400080E0600080E0800080E0A00080E0C00080E0E000C0000000C0002000C0004000C0006000C0008000C000A000C000C000C000E000C0200000C0202000C0204000C0206000C0208000C020A000C020C000C020E000C0400000C0402000C0404000C0406000C0
310
408000C040A000C040C000C040E000C0600000C0602000C0604000C0606000C0608000C060A000C060C000C060E000C0800000C0802000C0804000C0806000C0808000C080A000C080C000C080E000C0A00000C0A02000C0A04000C0A06000C0A08000C0A0A000C0A0C000C0A0E000C0C00000C0C02000C0C04000C0C06000
310
C0C08000C0C0A000F0FBFF00A4A0A000808080000000FF0000FF000000FFFF00FF000000FF00FF00FFFF0000FFFFFF0000000000000000000000000000000000000000000000000000000000000000000000000000000000000000000000000000000000000000000000000000000000000000000000000000000000000000
310
000000000000000000000000000000000000000000000000000000000000000000000000000000000000000000000000000000000000000000000000000000000000000000000000000000000000000000000000000000000000000000000000000000000000000000000000000000000000FFFF0000000000000000000000
310
00FFFF000000000000000000000000FFFF0000FFFF000000000000000000000000FFFF000000000000000000000000FFFF0000FFFF000000000000000000000000FFFF000000000000000000000000FFFF0000FFFF000000000000000000000000FFFF000000000000000000000000FFFF0000FFFF00000000000000000000
310
0000FFFF000000000000000000000000FFFF0000FFFF000000000000000000000000FFFF000000000000000000000000FFFF0000FFFF000000000000000000000000FFFF000000000000000000000000FFFF0000FFFF000000000000000000000000FFFF000000000000000000000000FFFF0000FFFF000000000000000000
310
000000FFFF000000000000000000000000FFFF000000FFFF0000000000000000000000FFFF0000000000000000000000FFFF00000000FFFF0000000000000000000000FFFF0000000000000000000000FFFF00000000FFFF0000000000000000000000FFFF0000000000000000000000FFFF00000000FFFF00000000000000
310
00000000FFFF0000000000000000000000FFFF00000000FFFF0000000000000000000000FFFF0000000000000000000000FFFF00000000FFFF0000000000000000000000FFFF0000000000000000000000FFFF00000000FFFF0000000000000000000000FFFF0000000000000000000000FFFF00000000FFFF000000000000
310
0000000000FFFF0000000000000000000000FFFF00000000FFFF0000000000000000000000FFFF0000000000000000000000FFFF0000000000FFFFFFFF00000000000000FFFFFFFF00000000000000FFFFFFFFFF0000000000FFFFFFFFFFFFFFFFFFFFFFFFFFFFFFFFFFFFFFFFFFFFFFFFFFFF000000000000000000000000
310
00000000000000000000000000000000000000000000000000000000000000000000000000000000000000000000000000000000000000000000000000000000000000000000000000000000000000000000000000000000000000000000000000000000000000000000000000000000000000000000000000000000000000
310
0000000000000000000000000000000000000000000000000000000000000000000000000000000000000000000000000000000000000000
102
{BLKREFS
331
2978B
102
}
 70
     5
280
     1
281
     1
  0
BLOCK_RECORD
  5
297FC
330
1
100
AcDbSymbolTableRecord
100
AcDbBlockTableRecord
  2
Drop Table_Rnd_FRONT
340
0
310
2800000020000000200000000100080000000000000400000000000000000000000000000000000000000000000080000080000000808000800000008000800080800000C0C0C000C0DCC000F0CAA6000020400000206000002080000020A0000020C0000020E00000400000004020000040400000406000004080000040A0
310
000040C0000040E00000600000006020000060400000606000006080000060A0000060C0000060E00000800000008020000080400000806000008080000080A0000080C0000080E00000A0000000A0200000A0400000A0600000A0800000A0A00000A0C00000A0E00000C0000000C0200000C0400000C0600000C0800000C0
310
A00000C0C00000C0E00000E0000000E0200000E0400000E0600000E0800000E0A00000E0C00000E0E00040000000400020004000400040006000400080004000A0004000C0004000E00040200000402020004020400040206000402080004020A0004020C0004020E000404000004040200040404000404060004040800040
310
40A0004040C0004040E00040600000406020004060400040606000406080004060A0004060C0004060E00040800000408020004080400040806000408080004080A0004080C0004080E00040A0000040A0200040A0400040A0600040A0800040A0A00040A0C00040A0E00040C0000040C0200040C0400040C0600040C08000
310
40C0A00040C0C00040C0E00040E0000040E0200040E0400040E0600040E0800040E0A00040E0C00040E0E00080000000800020008000400080006000800080008000A0008000C0008000E00080200000802020008020400080206000802080008020A0008020C0008020E00080400000804020008040400080406000804080
310
008040A0008040C0008040E00080600000806020008060400080606000806080008060A0008060C0008060E00080800000808020008080400080806000808080008080A0008080C0008080E00080A0000080A0200080A0400080A0600080A0800080A0A00080A0C00080A0E00080C0000080C0200080C0400080C0600080C0
310
800080C0A00080C0C00080C0E00080E0000080E0200080E0400080E0600080E0800080E0A00080E0C00080E0E000C0000000C0002000C0004000C0006000C0008000C000A000C000C000C000E000C0200000C0202000C0204000C0206000C0208000C020A000C020C000C020E000C0400000C0402000C0404000C0406000C0
310
408000C040A000C040C000C040E000C0600000C0602000C0604000C0606000C0608000C060A000C060C000C060E000C0800000C0802000C0804000C0806000C0808000C080A000C080C000C080E000C0A00000C0A02000C0A04000C0A06000C0A08000C0A0A000C0A0C000C0A0E000C0C00000C0C02000C0C04000C0C06000
310
C0C08000C0C0A000F0FBFF00A4A0A000808080000000FF0000FF000000FFFF00FF000000FF00FF00FFFF0000FFFFFF0000000000000000000000000000000000000000000000000000000000000000000000000000000000000000000000000000000000000000000000000000000000000000000000000000000000000000
310
000000000000000000000000000000000000FFFFFF00000000000000000000FFFFFFFF00000000000000000000FFFFFF0000FF00FF00000000000000000000FF0000FF00000000000000000000FF00FF0000FF00FF00000000000000000000FF0000FF00000000000000000000FF00FF0000FF00FF00000000000000000000
310
FF0000FF00000000000000000000FF00FF0000FF00FF00000000000000000000FF0000FF00000000000000000000FF00FF0000FF00FF00000000000000000000FF0000FF00000000000000000000FF00FF0000FF00FF00000000000000000000FF0000FF00000000000000000000FF00FF0000FF00FF000000000000000000
310
00FF0000FF00000000000000000000FF00FF0000FF00FF00000000000000000000FF0000FF00000000000000000000FF00FF0000FF00FF00000000000000000000FF0000FF00000000000000000000FF00FF0000FF00FF00000000000000000000FF0000FF00000000000000000000FF00FF0000FF00FF0000000000000000
310
0000FF0000FF00000000000000000000FF00FF000000FFFF00000000000000000000FF0000FF00000000000000000000FFFF00000000FFFF00000000000000000000FF0000FF00000000000000000000FFFF00000000FFFF00000000000000000000FF0000FF00000000000000000000FFFF00000000FFFF00000000000000
310
000000FF0000FF00000000000000000000FFFF00000000FFFF00000000000000000000FF0000FF00000000000000000000FFFF00000000FFFF00000000000000000000FF0000FF00000000000000000000FFFF00000000FFFF00000000000000000000FF0000FF00000000000000000000FFFF00000000FFFF000000000000
310
00000000FF0000FF00000000000000000000FFFF00000000FFFF00000000000000000000FF0000FF00000000000000000000FFFF00000000FFFF00000000000000000000FF0000FF00000000000000000000FFFF00000000FFFF00000000000000000000FFFFFFFF00000000000000000000FFFF00000000FF00FF00000000
310
0000000000FF0000FF000000000000000000FF00FF0000000000FFFFFFFFFFFFFFFFFFFFFFFF0000FFFFFFFFFFFFFFFFFFFFFFFF000000000000FFFFFFFFFFFFFFFFFFFFFFFFFFFFFFFFFFFFFFFFFFFFFFFFFFFF00000000000000000000000000000000000000000000000000000000000000000000000000000000000000
310
0000000000000000000000000000000000000000000000000000000000000000000000000000000000000000000000000000000000000000
102
{BLKREFS
331
29832
102
}
 70
     5
280
     1
281
     1
  0
ENDTAB
  0
ENDSEC
  0
SECTION
  2
BLOCKS
  0
BLOCK
  5
20
330
1F
100
AcDbEntity
  8
0
100
AcDbBlockBegin
  2
*Model_Space
 70
     0
 10
0.0
 20
0.0
 30
0.0
  3
*Model_Space
  1

  0
ENDBLK
  5
21
330
1F
100
AcDbEntity
  8
0
100
AcDbBlockEnd
  0
BLOCK
  5
D4
330
D2
100
AcDbEntity
 67
     1
  8
0
100
AcDbBlockBegin
  2
*Paper_Space
 70
     0
 10
0.0
 20
0.0
 30
0.0
  3
*Paper_Space
  1

  0
ENDBLK
  5
D5
330
D2
100
AcDbEntity
 67
     1
  8
0
100
AcDbBlockEnd
  0
BLOCK
  5
D8
330
D6
100
AcDbEntity
 67
     1
  8
0
100
AcDbBlockBegin
  2
*Paper_Space0
 70
     0
 10
0.0
 20
0.0
 30
0.0
  3
*Paper_Space0
  1

  0
ENDBLK
  5
D9
330
D6
100
AcDbEntity
 67
     1
  8
0
100
AcDbBlockEnd
  0
BLOCK
  5
29585
330
2957A
100
AcDbEntity
  8
0
100
AcDbBlockBegin
  2
Drop Kare Masa
 70
     0
 10
0.0
 20
0.0
 30
0.0
  3
Drop Kare Masa
  1

  0
SPLINE
  5
2957B
330
2957A
100
AcDbEntity
  8
NURUS FURNITURE
100
AcDbSpline
210
0.0
220
0.0
230
1.0
 70
     8
 71
     3
 72
    40
 73
    36
 74
    34
 42
0.0000000001
 43
0.0000000001
 44
0.0000000001
 40
0.0
 40
0.0
 40
0.0
 40
0.0
 40
1.561449117827902
 40
2.587553274360632
 40
3.455243710964651
 40
3.905060786562668
 40
4.324526455172514
 40
4.770042025867883
 40
5.299271624517809
 40
5.626820779650855
 40
8.002399056256246
 40
9.13956863618802
 40
10.51367305673745
 40
11.50145848551936
 40
12.4441792958842
 40
17.8016696294493
 40
26.20618056949028
 40
34.06955803418713
 40
40.45439115408958
 40
48.11246165318123
 40
53.91088926330438
 40
61.32691924233752
 40
64.1662028792834
 40
65.89130335854228
 40
67.61640046806625
 40
69.8299374935922
 40
70.98439652224671
 40
71.37900610035806
 40
71.92918614473502
 40
72.31637360592412
 40
72.75278672102126
 40
73.36613743722345
 40
74.4178379794118
 40
75.65247385949949
 40
76.62295429061207
 40
76.62295429061207
 40
76.62295429061207
 40
76.62295429061207
 10
-36.71882439770889
 20
0.1375933953146387
 30
0.0
 10
-37.06878851585952
 20
-0.2505081265079525
 30
0.0
 10
-37.64873107657877
 20
-0.8936500336697008
 30
0.0
 10
-38.17969971957428
 20
-1.930230651535111
 30
0.0
 10
-38.36022643834531
 20
-2.6969784531625
 30
0.0
 10
-38.29095324442096
 20
-3.299245074817804
 30
0.0
 10
-37.979372911268
 20
-3.627656509687653
 30
0.0
 10
-37.62367428219386
 20
-3.932187453560459
 30
0.0
 10
-37.14104644436611
 20
-3.979144533503244
 30
0.0
 10
-36.57379610344469
 20
-4.953574319347467
 30
0.0
 10
-35.93625617679754
 20
-6.020796736039187
 30
0.0
 10
-35.35211272425477
 20
-7.563933931175938
 30
0.0
 10
-35.26191332929284
 20
-8.73455216357911
 30
0.0
 10
-35.19027092719535
 20
-9.832261446245638
 30
0.0
 10
-35.15223222425539
 20
-12.26423265136941
 30
0.0
 10
-35.93124908777281
 20
-17.1262997550092
 30
0.0
 10
-36.30294610355395
 20
-24.32642347571562
 30
0.0
 10
-36.54655154169268
 20
-31.87306973773707
 30
0.0
 10
-36.67354555610109
 20
-39.17608362643762
 30
0.0
 10
-36.44289961615323
 20
-45.7867118738377
 30
0.0
 10
-36.1544599726858
 20
-52.74135711731173
 30
0.0
 10
-35.86266565316237
 20
-58.07286318809554
 30
0.0
 10
-35.06462003270281
 20
-62.03958622494724
 30
0.0
 10
-35.3606734339628
 20
-64.11903803942607
 30
0.0
 10
-35.24039706508848
 20
-66.05834948810661
 30
0.0
 10
-36.22118326479267
 20
-67.53029148814937
 30
0.0
 10
-36.69664031867069
 20
-68.69342174993426
 30
0.0
 10
-37.18372950027879
 20
-69.21979008225889
 30
0.0
 10
-37.61376113761798
 20
-69.36245688387305
 30
0.0
 10
-38.01800185488173
 20
-69.5873567735008
 30
0.0
 10
-38.30936467668926
 20
-69.99530357290939
 30
0.0
 10
-38.35417021784815
 20
-70.72157857126478
 30
0.0
 10
-38.057357212645
 20
-71.65658609055526
 30
0.0
 10
-37.47003600731478
 20
-72.58155876243074
 30
0.0
 10
-36.9759948003657
 20
-73.12636092195919
 30
0.0
 10
-36.75856530647707
 20
-73.36613051232723
 30
0.0
 11
-36.71882439770889
 21
0.1375933953146387
 31
0.0
 11
-37.70232824393679
 21
-1.07518998683588
 31
0.0
 11
-38.16143319137427
 21
-1.99285680398259
 31
0.0
 11
-38.32560648895015
 21
-2.844874305057032
 31
0.0
 11
-38.24386598978254
 21
-3.287202115956802
 31
0.0
 11
-37.98185503917739
 21
-3.614771511513367
 31
0.0
 11
-37.62151853531213
 21
-3.876767175054169
 31
0.0
 11
-37.13008517307026
 21
-4.073178016309952
 31
0.0
 11
-36.93358346069181
 21
-4.335238173641641
 31
0.0
 11
-35.80533521144025
 21
-6.425795045946301
 31
0.0
 11
-35.4287128465694
 21
-7.498786307700697
 31
0.0
 11
-35.25523131021419
 21
-8.8618956632248
 31
0.0
 11
-35.1976132749005
 21
-9.847999215251888
 31
0.0
 11
-35.18348387221613
 21
-10.79061413465149
 31
0.0
 11
-35.69518211355626
 21
-16.12361212678058
 31
0.0
 11
-36.28431005666516
 21
-24.50744969724417
 31
0.0
 11
-36.54094090113904
 21
-32.3666383170679
 31
0.0
 11
-36.61558986326145
 21
-38.75103503887783
 31
0.0
 11
-36.41171773206315
 21
-46.4063913286385
 31
0.0
 11
-36.1657282262513
 21
-52.19959872289507
 31
0.0
 11
-35.51972195601866
 21
-59.58743849841392
 31
0.0
 11
-35.19118758237801
 21
-62.40765067773043
 31
0.0
 11
-35.30175494899322
 21
-64.12920419736872
 31
0.0
 11
-35.41231914270793
 21
-65.85075454410741
 31
0.0
 11
-36.3288126657535
 21
-67.86564555495385
 31
0.0
 11
-36.88357026371341
 21
-68.87807809905132
 31
0.0
 11
-37.16260137231711
 21
-69.15710920765502
 31
0.0
 11
-37.6571486941084
 21
-69.39819223845495
 31
0.0
 11
-37.98686379703213
 21
-69.60117519588255
 31
0.0
 11
-38.24056909740648
 21
-69.95626677222697
 31
0.0
 11
-38.31687971819156
 21
-70.56485184452265
 31
0.0
 11
-38.03835983331192
 21
-71.57900208199532
 31
0.0
 11
-37.39218591136705
 21
-72.63104058841907
 31
0.0
 11
-36.75856530647707
 21
-73.36613051232723
 31
0.0
  0
SPLINE
  5
2957C
330
2957A
100
AcDbEntity
  8
NURUS FURNITURE
100
AcDbSpline
210
0.0
220
0.0
230
1.0
 70
     8
 71
     3
 72
    40
 73
    36
 74
    34
 42
0.0000000001
 43
0.0000000001
 44
0.0000000001
 40
0.0
 40
0.0
 40
0.0
 40
0.0
 40
1.561449117827195
 40
2.587553274359925
 40
3.455243710963051
 40
3.905060786563021
 40
4.324526455171589
 40
4.770042025866958
 40
5.299271624516884
 40
5.626820779649385
 40
8.002399056254777
 40
9.139568636185693
 40
10.51367305673614
 40
11.50145848551805
 40
12.44417929588289
 40
17.80166962944799
 40
26.20618056948806
 40
34.06955803418494
 40
40.4543911540883
 40
48.11246165317993
 40
53.91088926330309
 40
61.32691924233523
 40
64.16620287928212
 40
65.89130335854185
 40
67.61640046806501
 40
69.82993749359059
 40
70.9843965222451
 40
71.37900610035647
 40
71.92918614473422
 40
72.31637360592332
 40
72.75278672102047
 40
73.36613743722266
 40
74.41783797941124
 40
75.65247385949816
 40
76.62295429061014
 40
76.62295429061014
 40
76.62295429061014
 40
76.62295429061014
 10
36.73025436813896
 20
-73.31148537053412
 30
0.0
 10
36.34215284631591
 20
-73.66144948868407
 30
0.0
 10
35.6990109391536
 20
-74.24139204940468
 30
0.0
 10
34.66243032129023
 20
-74.77236069239939
 30
0.0
 10
33.89568251966193
 20
-74.95288741117042
 30
0.0
 10
33.29341589800788
 20
-74.8836142172454
 30
0.0
 10
32.9650044631353
 20
-74.57203388409209
 30
0.0
 10
32.66047351926591
 20
-74.21633525502068
 30
0.0
 10
32.61351643932176
 20
-73.73370741719122
 30
0.0
 10
31.63908665347844
 20
-73.16645707627128
 30
0.0
 10
30.57186423678741
 20
-72.52891714962356
 30
0.0
 10
29.02872704164838
 20
-71.94477369708045
 30
0.0
 10
27.85810880924874
 20
-71.85457430211807
 30
0.0
 10
26.76039952657993
 20
-71.78293190002114
 30
0.0
 10
24.32842832145798
 20
-71.74489319707834
 30
0.0
 10
19.46636121781648
 20
-72.52391006059849
 30
0.0
 10
12.26623749710779
 20
-72.89560707637964
 30
0.0
 10
4.719591235090774
 20
-73.13921251451848
 30
0.0
 10
-2.583422653615343
 20
-73.26620652892768
 30
0.0
 10
-9.194050901010996
 20
-73.035560588978
 30
0.0
 10
-16.14869614448798
 20
-72.74712094551148
 30
0.0
 10
-21.48020221526804
 20
-72.45532662598805
 30
0.0
 10
-25.44692525212304
 20
-71.65728100552826
 30
0.0
 10
-27.52637706660062
 20
-71.95333440678644
 30
0.0
 10
-29.46568851528446
 20
-71.83305803791643
 30
0.0
 10
-30.93763051532369
 20
-72.81384423761767
 30
0.0
 10
-32.10076077710801
 20
-73.28930129149398
 30
0.0
 10
-32.62712910943446
 20
-73.77639047310708
 30
0.0
 10
-32.76979591104646
 20
-74.20642211044526
 30
0.0
 10
-32.99469580067671
 20
-74.61066282770786
 30
0.0
 10
-33.40264260008553
 20
-74.90202564951494
 30
0.0
 10
-34.12891759843751
 20
-74.94683119067542
 30
0.0
 10
-35.06392511773265
 20
-74.65001818546955
 30
0.0
 10
-35.98889778960529
 20
-74.0626969801416
 30
0.0
 10
-36.53369994913282
 20
-73.56865577319126
 30
0.0
 10
-36.7734695395011
 20
-73.35122627930321
 30
0.0
 11
36.73025436813896
 21
-73.31148537053412
 31
0.0
 11
35.51747098598935
 21
-74.29498921676202
 31
0.0
 11
34.59980416884264
 21
-74.7540941641995
 31
0.0
 11
33.74778666776911
 21
-74.91826746177537
 31
0.0
 11
33.30545885686752
 21
-74.83652696260685
 31
0.0
 11
32.97788946131186
 21
-74.57451601200261
 31
0.0
 11
32.71589379777106
 21
-74.21417950813737
 31
0.0
 11
32.51948295651528
 21
-73.72274614589549
 31
0.0
 11
32.25742279918359
 21
-73.52624443351794
 31
0.0
 11
30.16686592687893
 21
-72.39799618426639
 31
0.0
 11
29.09387466512544
 21
-72.02137381939554
 31
0.0
 11
27.73076530960043
 21
-71.84789228303941
 31
0.0
 11
26.74466175757334
 21
-71.79027424772574
 31
0.0
 11
25.80204683817374
 21
-71.77614484504136
 31
0.0
 11
20.46904884604464
 21
-72.28784308638148
 31
0.0
 11
12.08521127558197
 21
-72.87697102949039
 31
0.0
 11
4.226022655758242
 21
-73.13360187396518
 31
0.0
 11
-2.158374066052601
 21
-73.20825083608667
 31
0.0
 11
-9.813730355813277
 21
-73.00437870488838
 31
0.0
 11
-15.60693775006984
 21
-72.75838919907653
 31
0.0
 11
-22.99477752558778
 21
-72.1123829288448
 31
0.0
 11
-25.8149897049052
 21
-71.78384855520324
 31
0.0
 11
-27.5365432245444
 21
-71.89441592181754
 31
0.0
 11
-29.25809357128219
 21
-72.00498011553406
 31
0.0
 11
-31.27298458212863
 21
-72.92147363857873
 31
0.0
 11
-32.2854171262261
 21
-73.47623123653864
 31
0.0
 11
-32.5644482348298
 21
-73.75526234514234
 31
0.0
 11
-32.80553126562973
 21
-74.24980966693453
 31
0.0
 11
-33.00851422305732
 21
-74.57952476985827
 31
0.0
 11
-33.36360579940174
 21
-74.83323007023262
 31
0.0
 11
-33.97219087169742
 21
-74.90954069101769
 31
0.0
 11
-34.9863411091701
 21
-74.63102080613714
 31
0.0
 11
-36.03837961559293
 21
-73.98484688419228
 31
0.0
 11
-36.7734695395011
 21
-73.35122627930321
 31
0.0
  0
SPLINE
  5
2957D
330
2957A
100
AcDbEntity
  8
NURUS FURNITURE
100
AcDbSpline
210
0.0
220
0.0
230
1.0
 70
     8
 71
     3
 72
    40
 73
    36
 74
    34
 42
0.0000000001
 43
0.0000000001
 44
0.0000000001
 40
0.0
 40
0.0
 40
0.0
 40
0.0
 40
1.561449117825916
 40
2.587553274357426
 40
3.455243710961445
 40
3.905060786559626
 40
4.324526455169047
 40
4.770042025864817
 40
5.299271624513729
 40
5.626820779647321
 40
8.002399056251912
 40
9.139568636183685
 40
10.51367305673312
 40
11.50145848551417
 40
12.444179295879
 40
17.8016696294451
 40
26.20618056948511
 40
34.06955803418289
 40
40.45439115408443
 40
48.11246165317607
 40
53.91088926330009
 40
61.32691924233241
 40
64.16620287927829
 40
65.89130335853806
 40
67.61640046806299
 40
69.82993749358811
 40
70.9843965222414
 40
71.37900610035405
 40
71.92918614473099
 40
72.31637360592056
 40
72.75278672101697
 40
73.36613743721916
 40
74.41783797940814
 40
75.65247385949554
 40
76.62295429060752
 40
76.62295429060752
 40
76.62295429060752
 40
76.62295429060752
 10
-36.75116258718481
 20
0.1052552058378069
 30
0.0
 10
-36.36306106536358
 20
0.4552193239875351
 30
0.0
 10
-35.71991915820126
 20
1.035161884707463
 30
0.0
 10
-34.68333854033881
 20
1.566130527701147
 30
0.0
 10
-33.91659073870869
 20
1.746657246472864
 30
0.0
 10
-33.31432411705464
 20
1.67738405254613
 30
0.0
 10
-32.98591268218479
 20
1.365803719395898
 30
0.0
 10
-32.68138173831358
 20
1.010105090320962
 30
0.0
 10
-32.63442465837034
 20
0.5274772524942364
 30
0.0
 10
-31.65999487252066
 20
-0.0397730884307066
 30
0.0
 10
-30.59277245583507
 20
-0.6773130150751286
 30
0.0
 10
-29.04963526069605
 20
-1.2614564676187
 30
0.0
 10
-27.87901702829549
 20
-1.351655862579377
 30
0.0
 10
-26.78130774562669
 20
-1.423298264678123
 30
0.0
 10
-24.34933654050292
 20
-1.461336967619899
 30
0.0
 10
-19.48726943686415
 20
-0.6823201040992899
 30
0.0
 10
-12.28714571615728
 20
-0.3106230883198577
 30
0.0
 10
-4.740499454134806
 20
-0.06701765018056
 30
0.0
 10
2.562514434563126
 20
0.0599763642287599
 30
0.0
 10
9.173142681963327
 20
-0.1706695757220586
 30
0.0
 10
16.12778792543759
 20
-0.4591092191853932
 30
0.0
 10
21.45929399622219
 20
-0.7509035387123504
 30
0.0
 10
25.42601703307446
 20
-1.548949159171456
 30
0.0
 10
27.50546884755295
 20
-1.252895757910664
 30
0.0
 10
29.44478029623133
 20
-1.373172126784425
 30
0.0
 10
30.91672229627784
 20
-0.3923859270802268
 30
0.0
 10
32.07985255805943
 20
0.0830711267956304
 30
0.0
 10
32.60622089038861
 20
0.5701603084081626
 30
0.0
 10
32.7488876919997
 20
1.00019194574736
 30
0.0
 10
32.97378758162995
 20
1.404432663008265
 30
0.0
 10
33.38173438103695
 20
1.695795484816358
 30
0.0
 10
34.10800937939348
 20
1.740601025975934
 30
0.0
 10
35.04301689868317
 20
1.443788020773467
 30
0.0
 10
35.96798957055762
 20
0.8564668154430137
 30
0.0
 10
36.51279173008698
 20
0.3624256084930266
 30
0.0
 10
36.75256132045433
 20
0.1449961146050782
 30
0.0
 11
-36.75116258718481
 21
0.1052552058378069
 31
0.0
 11
-35.53837920503611
 21
1.088759052064801
 31
0.0
 11
-34.62071238789031
 21
1.547863999501373
 31
0.0
 11
-33.76869488681587
 21
1.712037297077245
 31
0.0
 11
-33.3263670759161
 21
1.630296797908727
 31
0.0
 11
-32.99879768035862
 21
1.368285847305401
 31
0.0
 11
-32.73680201681964
 21
1.007949343438326
 31
0.0
 11
-32.54039117556204
 21
0.5165159811982676
 31
0.0
 11
-32.27833101823035
 21
0.3200142688189089
 31
0.0
 11
-30.1877741459266
 21
-0.8082339804326466
 31
0.0
 11
-29.1147828841722
 21
-1.184856345303501
 31
0.0
 11
-27.7516735286481
 21
-1.358337881658712
 31
0.0
 11
-26.76556997662192
 21
-1.415955916973302
 31
0.0
 11
-25.82295505722232
 21
-1.430085319657678
 31
0.0
 11
-20.48995706509231
 21
-0.9183870783166412
 31
0.0
 11
-12.10611949462964
 21
-0.3292591352086447
 31
0.0
 11
-4.246930874805002
 21
-0.07262829073386
 31
0.0
 11
2.137465847004023
 21
0.0020206713876405
 31
0.0
 11
9.792822136764698
 21
-0.2018514598106549
 31
0.0
 11
15.58602953102218
 21
-0.4478409656215945
 31
0.0
 11
22.97386930654011
 21
-1.09384723585515
 31
0.0
 11
25.79408148585662
 21
-1.422381609495801
 31
0.0
 11
27.51563500549583
 21
-1.311814242880586
 31
0.0
 11
29.23718535223543
 21
-1.201250049164968
 31
0.0
 11
31.25207636308096
 21
-0.2847565261193949
 31
0.0
 11
32.26450890717752
 21
0.2700010718396015
 31
0.0
 11
32.54354001578213
 21
0.5490321804442147
 31
0.0
 11
32.78462304658205
 21
1.043579502235502
 31
0.0
 11
32.98760600401056
 21
1.37329460515923
 31
0.0
 11
33.34269758035407
 21
1.62699990553358
 31
0.0
 11
33.95128265264975
 21
1.703310526318659
 31
0.0
 11
34.96543289012334
 21
1.424790641439926
 31
0.0
 11
36.01747139654617
 21
0.7786167194941527
 31
0.0
 11
36.75256132045433
 21
0.1449961146050782
 31
0.0
  0
SPLINE
  5
2957E
330
2957A
100
AcDbEntity
  8
NURUS FURNITURE
100
AcDbSpline
210
0.0
220
0.0
230
1.0
 70
     8
 71
     3
 72
    40
 73
    36
 74
    34
 42
0.0000000001
 43
0.0000000001
 44
0.0000000001
 40
0.0
 40
0.0
 40
0.0
 40
0.0
 40
1.561449117826622
 40
2.587553274358132
 40
3.455243710961258
 40
3.905060786560334
 40
4.324526455169754
 40
4.770042025865524
 40
5.299271624514436
 40
5.626820779647482
 40
8.002399056252073
 40
9.139568636182989
 40
10.51367305673344
 40
11.50145848551449
 40
12.44417929587933
 40
17.80166962944542
 40
26.20618056948549
 40
34.06955803418327
 40
40.4543911540848
 40
48.11246165317644
 40
53.91088926330047
 40
61.32691924233179
 40
64.16620287927869
 40
65.89130335853846
 40
67.61640046806253
 40
69.82993749358811
 40
70.9843965222414
 40
71.37900610035405
 40
71.92918614473059
 40
72.31637360592142
 40
72.75278672101656
 40
73.36613743721978
 40
74.417837979409
 40
75.65247385949591
 40
76.6229542906078
 40
76.6229542906078
 40
76.6229542906078
 40
76.6229542906078
 10
36.69791617866304
 20
-73.34382356001095
 30
0.0
 10
37.04788029681367
 20
-72.9557220381887
 30
0.0
 10
37.62782285753383
 20
-72.3125801310274
 30
0.0
 10
38.1587915005257
 20
-71.27599951316312
 30
0.0
 10
38.33931821929855
 20
-70.50925171153551
 30
0.0
 10
38.27004502537056
 20
-69.90698508988145
 30
0.0
 10
37.95846469222124
 20
-69.57857365500808
 30
0.0
 10
37.6027660631471
 20
-69.27404271114051
 30
0.0
 10
37.12013822532117
 20
-69.22708563119283
 30
0.0
 10
36.5528878843952
 20
-68.25265584535134
 30
0.0
 10
35.91534795775351
 20
-67.18543342865871
 30
0.0
 10
35.3312045052071
 20
-65.64229623352253
 30
0.0
 10
35.24100511024699
 20
-64.47167800111959
 30
0.0
 10
35.16936270814586
 20
-63.37396871845306
 30
0.0
 10
35.13132400520954
 20
-60.94199751332928
 30
0.0
 10
35.91034086872515
 20
-56.07993040968938
 30
0.0
 10
36.28203788450446
 20
-48.87980668898308
 30
0.0
 10
36.52564332264592
 20
-41.33316042696174
 30
0.0
 10
36.65263733705342
 20
-34.03014653826097
 30
0.0
 10
36.42199139710101
 20
-27.419518290861
 30
0.0
 10
36.13355175363995
 20
-20.4648730473873
 30
0.0
 10
35.8417574341147
 20
-15.13336697660338
 30
0.0
 10
35.04371181365241
 20
-11.16664393975213
 30
0.0
 10
35.33976521491513
 20
-9.087192125272053
 30
0.0
 10
35.21948884604353
 20
-7.147880676591967
 30
0.0
 10
36.20027504574319
 20
-5.675938676548867
 30
0.0
 10
36.67573209962302
 20
-4.512808414764322
 30
0.0
 10
37.16282128123294
 20
-3.986440082439003
 30
0.0
 10
37.59285291857214
 20
-3.843773280826212
 30
0.0
 10
37.99709363583406
 20
-3.618873391196757
 30
0.0
 10
38.28845645764159
 20
-3.210926591788734
 30
0.0
 10
38.33326199880321
 20
-2.484651593433113
 30
0.0
 10
38.03644899359824
 20
-1.549644074142747
 30
0.0
 10
37.44912778826892
 20
-0.6246714022670404
 30
0.0
 10
36.95508658131985
 20
-0.079869242739278
 30
0.0
 10
36.73765708743031
 20
0.159900347628195
 30
0.0
 11
36.69791617866304
 21
-73.34382356001095
 31
0.0
 11
37.68142002489003
 21
-72.13104017786133
 31
0.0
 11
38.1405249723266
 21
-71.21337336071554
 31
0.0
 11
38.30469826990248
 21
-70.361355859642
 31
0.0
 11
38.22295777073396
 21
-69.91902804874133
 31
0.0
 11
37.96094682013063
 21
-69.59145865318385
 31
0.0
 11
37.60061031626356
 21
-69.32946298964487
 31
0.0
 11
37.1091769540235
 21
-69.13305214838726
 31
0.0
 11
36.91267524164505
 21
-68.87099199105557
 31
0.0
 11
35.78442699239349
 21
-66.78043511875182
 31
0.0
 11
35.40780462752264
 21
-65.70744385699834
 31
0.0
 11
35.23432309116652
 21
-64.34433450147333
 31
0.0
 11
35.17670505585193
 21
-63.35823094944714
 31
0.0
 11
35.16257565316755
 21
-62.41561603004754
 31
0.0
 11
35.67427389450859
 21
-57.08261803791754
 31
0.0
 11
36.2634018376175
 21
-48.69878046745487
 31
0.0
 11
36.52003268209228
 21
-40.83959184763023
 31
0.0
 11
36.59468164421287
 21
-34.45519512582121
 31
0.0
 11
36.39080951301457
 21
-26.79983883606053
 31
0.0
 11
36.14482000720363
 21
-21.00663144180305
 31
0.0
 11
35.49881373697099
 21
-13.61879166628603
 31
0.0
 11
35.17027936332943
 21
-10.7985794869686
 31
0.0
 11
35.28084672994464
 21
-9.077025967329404
 31
0.0
 11
35.39141092366117
 21
-7.355475620590709
 31
0.0
 11
36.30790444670584
 21
-5.340584609744269
 31
0.0
 11
36.86266204466483
 21
-4.328152065647714
 31
0.0
 11
37.14169315326945
 21
-4.049120957043101
 31
0.0
 11
37.63624047506073
 21
-3.808037926244082
 31
0.0
 11
37.96595557798537
 21
-3.60505496881467
 31
0.0
 11
38.21966087835881
 21
-3.249963392472068
 31
0.0
 11
38.2959714991448
 21
-2.641378320175476
 31
0.0
 11
38.01745161426516
 21
-1.62722808270189
 31
0.0
 11
37.37127769232029
 21
-0.5751895762790582
 31
0.0
 11
36.73765708743031
 21
0.159900347628195
 31
0.0
  0
POINT
  5
2957F
330
2957A
100
AcDbEntity
  8
NURUS FURNITURE
 62
     6
100
AcDbPoint
 10
-0.0760723248977229
 20
0.0
 30
0.0
  0
POINT
  5
29580
330
2957A
100
AcDbEntity
  8
NURUS FURNITURE
 62
     6
100
AcDbPoint
 10
-0.0969805439435732
 20
-73.20623016469813
 30
0.0
  0
POINT
  5
29581
330
2957A
100
AcDbEntity
  8
NURUS FURNITURE
 62
     6
100
AcDbPoint
 10
-36.61356919187256
 20
-36.61356919187188
 30
0.0
  0
POINT
  5
29582
330
2957A
100
AcDbEntity
  8
NURUS FURNITURE
 62
     6
100
AcDbPoint
 10
36.59266097282489
 20
-36.59266097282648
 30
0.0
  0
ENDBLK
  5
29586
330
2957A
100
AcDbEntity
  8
0
100
AcDbBlockEnd
  0
BLOCK
  5
29591
330
29588
100
AcDbEntity
  8
0
100
AcDbBlockBegin
  2
Drop Sandalye
 70
     0
 10
0.0
 20
0.0
 30
0.0
  3
Drop Sandalye
  1

  0
POINT
  5
29589
330
29588
100
AcDbEntity
  8
NURUS FURNITURE
 62
     6
100
AcDbPoint
 10
0.0
 20
0.0
 30
0.0
  0
SPLINE
  5
2958A
330
29588
100
AcDbEntity
  8
NURUS FURNITURE
100
AcDbSpline
210
0.0
220
0.0
230
1.0
 70
     8
 71
     3
 72
    83
 73
    79
 74
     0
 42
0.0000000001
 43
0.0000000001
 40
0.0
 40
0.0
 40
0.0
 40
0.0
 40
52.04291735096648
 40
97.79484378290952
 40
131.0359208861222
 40
162.2935991582775
 40
186.4550054719976
 40
189.620993479613
 40
196.9342360004352
 40
214.0889883680838
 40
221.6670820757492
 40
224.107732717703
 40
235.2795798341752
 40
253.7573540315607
 40
264.4585769056138
 40
269.5292496953391
 40
272.4614606081489
 40
274.5617927342224
 40
276.5715648932892
 40
280.3410019162383
 40
284.6644776556398
 40
290.2015796662795
 40
299.7763966754338
 40
313.4489273336122
 40
324.4053219299614
 40
344.4736841653424
 40
358.9397143771845
 40
366.2495911067932
 40
370.6737615191977
 40
377.142596481016
 40
383.3411267400815
 40
386.4828364511734
 40
388.3230523395227
 40
392.1044876295876
 40
415.8878420182801
 40
438.7973446865379
 40
465.9518353584116
 40
522.8461033526915
 40
561.4282148189807
 40
586.6102759935795
 40
596.2273648747252
 40
602.229510913048
 40
608.1327690921399
 40
613.3593411394904
 40
620.2005585966722
 40
627.1415234666114
 40
633.0162729364133
 40
637.3047966337718
 40
660.4174532682244
 40
677.2952694715315
 40
693.6413497333096
 40
704.3197365866685
 40
715.3779804182509
 40
726.6080015781705
 40
733.532132680828
 40
737.6256328966611
 40
741.4874652962094
 40
744.0831874144144
 40
746.9343380929017
 40
750.8306015922652
 40
756.5079439392727
 40
763.7933822904385
 40
787.0671681504176
 40
804.5992797705867
 40
812.6163331187237
 40
814.116790745378
 40
814.3078222312791
 40
824.2658570232956
 40
841.2078178373205
 40
852.6493607958339
 40
859.1283203697823
 40
890.5606309814757
 40
917.9445438833958
 40
935.8153456047878
 40
976.747148116598
 40
1018.654953645514
 40
1052.740291644704
 40
1079.802090754485
 40
1079.802090754485
 40
1079.802090754485
 40
1079.802090754485
 10
0.105154833790948
 20
-51.18607808453965
 30
0.0
 10
-1.63217675647138
 20
-51.0811647782441
 30
0.0
 10
-4.896829856586009
 20
-50.88402017294209
 30
0.0
 10
-9.08760468782566
 20
-49.42145129598339
 30
0.0
 10
-12.20087363457969
 20
-47.48752212608565
 30
0.0
 10
-14.71729403610879
 20
-45.85120971695596
 30
0.0
 10
-15.85499963519487
 20
-44.24595045559544
 30
0.0
 10
-16.67319237467836
 20
-43.41706450662082
 30
0.0
 10
-17.64130648596801
 20
-43.18835593559595
 30
0.0
 10
-18.49852741303493
 20
-43.29920832202662
 30
0.0
 10
-19.73447699838107
 20
-42.77045271677628
 30
0.0
 10
-19.82826411911173
 20
-43.56433350065822
 30
0.0
 10
-20.41875097081811
 20
-44.42536363234978
 30
0.0
 10
-20.89205242779645
 20
-45.71033675235298
 30
0.0
 10
-21.20384877596643
 20
-46.81277832446085
 30
0.0
 10
-21.56330903549588
 20
-47.33721991982076
 30
0.0
 10
-21.8481609743485
 20
-47.53251022883477
 30
0.0
 10
-22.08291480348908
 20
-47.5795439861231
 30
0.0
 10
-22.34869537924169
 20
-47.54398092533199
 30
0.0
 10
-22.63327004327312
 20
-47.33611011150458
 30
0.0
 10
-22.88985761395361
 20
-46.95775887191018
 30
0.0
 10
-23.1354445960369
 20
-46.35259468295828
 30
0.0
 10
-23.29108160751821
 20
-45.40299698486808
 30
0.0
 10
-23.31101017121273
 20
-44.23988849012618
 30
0.0
 10
-22.76948259843903
 20
-42.83661842092283
 30
0.0
 10
-22.19856137284296
 20
-41.4372964977241
 30
0.0
 10
-21.75807669516053
 20
-40.11210659026653
 30
0.0
 10
-21.53306900104235
 20
-39.26658711572043
 30
0.0
 10
-21.22391149174746
 20
-38.73034341896232
 30
0.0
 10
-20.74426187183508
 20
-38.40343808841828
 30
0.0
 10
-20.37265930209833
 20
-38.02971363508539
 30
0.0
 10
-20.11108966734264
 20
-37.76574524373712
 30
0.0
 10
-19.98572310675172
 20
-37.48121277920154
 30
0.0
 10
-20.5655741889268
 20
-36.57223082445762
 30
0.0
 10
-20.79822186596721
 20
-34.94330648730886
 30
0.0
 10
-21.43217309676584
 20
-32.54671276559691
 30
0.0
 10
-22.06372916463624
 20
-29.04124280942881
 30
0.0
 10
-22.45493247719332
 20
-24.95967786616962
 30
0.0
 10
-22.51472938493225
 20
-20.94111705908245
 30
0.0
 10
-22.45958173285908
 20
-18.48785805945829
 30
0.0
 10
-22.34680574788763
 20
-17.14054359878844
 30
0.0
 10
-22.3153754575178
 20
-16.40950208379115
 30
0.0
 10
-22.60725516607727
 20
-15.88314405142523
 30
0.0
 10
-23.0997695941569
 20
-15.52574773867457
 30
0.0
 10
-23.69740310938141
 20
-15.30412934968035
 30
0.0
 10
-24.24931632697826
 20
-14.94867799851443
 30
0.0
 10
-24.69460853638975
 20
-14.57759233364504
 30
0.0
 10
-25.23457491547651
 20
-13.59562195380624
 30
0.0
 10
-25.57412569758708
 20
-12.14780793810041
 30
0.0
 10
-26.2132832688294
 20
-10.38185759061036
 30
0.0
 10
-26.61850907071312
 20
-8.977197347121432
 30
0.0
 10
-27.06855841942252
 20
-7.781782092506318
 30
0.0
 10
-27.13809985561511
 20
-6.673766033763513
 30
0.0
 10
-27.03600278490467
 20
-5.695574541653627
 30
0.0
 10
-26.78868541081829
 20
-4.996926512475511
 30
0.0
 10
-26.56293096190257
 20
-4.543935983120832
 30
0.0
 10
-26.26501265908337
 20
-4.335754396707784
 30
0.0
 10
-25.96642173440978
 20
-4.234385757360428
 30
0.0
 10
-25.6408431138143
 20
-4.294257498727006
 30
0.0
 10
-25.34782996331705
 20
-4.609846106094437
 30
0.0
 10
-25.05932717285669
 20
-5.093535711374443
 30
0.0
 10
-24.76723704845699
 20
-6.279850057429371
 30
0.0
 10
-24.24630341703414
 20
-7.748708276736351
 30
0.0
 10
-23.85749558092084
 20
-9.45196529993143
 30
0.0
 10
-23.4558015180728
 20
-10.10582802817532
 30
0.0
 10
-23.49925939250534
 20
-10.57852619727657
 30
0.0
 10
-23.09328057907533
 20
-10.55147507862682
 30
0.0
 10
-22.31951521865903
 20
-10.0411888409601
 30
0.0
 10
-21.18234776297049
 20
-9.498219158663232
 30
0.0
 10
-20.13446988330816
 20
-8.94108855494494
 30
0.0
 10
-19.07917036937579
 20
-7.664647786204795
 30
0.0
 10
-17.74563796259826
 20
-5.934086282232215
 30
0.0
 10
-15.64041431410714
 20
-4.432144404028576
 30
0.0
 10
-13.12245013960273
 20
-3.054455093264436
 30
0.0
 10
-10.03940084537498
 20
-1.689189362714159
 30
0.0
 10
-6.259244556171324
 20
-0.6966359568332337
 30
0.0
 10
-2.86305918934795
 20
-0.1355882973045936
 30
0.0
 10
-0.8256298155583863
 20
-0.0415974097476237
 30
0.0
 10
0.0760723248968134
 20
0.0
 30
0.0
  0
SPLINE
  5
2958B
330
29588
100
AcDbEntity
  8
NURUS FURNITURE
100
AcDbSpline
210
0.0
220
0.0
230
1.0
 70
     8
 71
     3
 72
    83
 73
    79
 74
     0
 42
0.0000000001
 43
0.0000000001
 40
0.0
 40
0.0
 40
0.0
 40
0.0
 40
52.04291735096648
 40
97.79484378290952
 40
131.0359208861222
 40
162.2935991582775
 40
186.4550054719976
 40
189.620993479613
 40
196.9342360004352
 40
214.0889883680838
 40
221.6670820757492
 40
224.107732717703
 40
235.2795798341752
 40
253.7573540315607
 40
264.4585769056138
 40
269.5292496953391
 40
272.4614606081489
 40
274.5617927342224
 40
276.5715648932892
 40
280.3410019162383
 40
284.6644776556398
 40
290.2015796662795
 40
299.7763966754338
 40
313.4489273336122
 40
324.4053219299614
 40
344.4736841653424
 40
358.9397143771845
 40
366.2495911067932
 40
370.6737615191977
 40
377.142596481016
 40
383.3411267400815
 40
386.4828364511734
 40
388.3230523395227
 40
392.1044876295876
 40
415.8878420182801
 40
438.7973446865379
 40
465.9518353584116
 40
522.8461033526915
 40
561.4282148189807
 40
586.6102759935795
 40
596.2273648747252
 40
602.229510913048
 40
608.1327690921399
 40
613.3593411394904
 40
620.2005585966722
 40
627.1415234666114
 40
633.0162729364133
 40
637.3047966337718
 40
660.4174532682244
 40
677.2952694715315
 40
693.6413497333096
 40
704.3197365866685
 40
715.3779804182509
 40
726.6080015781705
 40
733.532132680828
 40
737.6256328966611
 40
741.4874652962094
 40
744.0831874144144
 40
746.9343380929017
 40
750.8306015922652
 40
756.5079439392727
 40
763.7933822904385
 40
787.0671681504176
 40
804.5992797705867
 40
812.6163331187237
 40
814.116790745378
 40
814.3078222312791
 40
824.2658570232956
 40
841.2078178373205
 40
852.6493607958339
 40
859.1283203697823
 40
890.5606309814757
 40
917.9445438833958
 40
935.8153456047878
 40
976.747148116598
 40
1018.654953645514
 40
1052.740291644704
 40
1079.802090754485
 40
1079.802090754485
 40
1079.802090754485
 40
1079.802090754485
 10
-0.0290825088932252
 20
-51.18607808453965
 30
0.0
 10
1.708249081369103
 20
-51.0811647782441
 30
0.0
 10
4.972902181483732
 20
-50.88402017294209
 30
0.0
 10
9.163677012723383
 20
-49.42145129598339
 30
0.0
 10
12.27694595947741
 20
-47.48752212608565
 30
0.0
 10
14.79336636100652
 20
-45.85120971695596
 30
0.0
 10
15.93107196009259
 20
-44.24595045559544
 30
0.0
 10
16.74926469957609
 20
-43.41706450662082
 30
0.0
 10
17.71737881086574
 20
-43.18835593559595
 30
0.0
 10
18.57459973793266
 20
-43.29920832202662
 30
0.0
 10
19.81054932327879
 20
-42.77045271677628
 30
0.0
 10
19.90433644400946
 20
-43.56433350065811
 30
0.0
 10
20.49482329571583
 20
-44.42536363234978
 30
0.0
 10
20.96812475269417
 20
-45.71033675235298
 30
0.0
 10
21.27992110086416
 20
-46.81277832446085
 30
0.0
 10
21.6393813603936
 20
-47.33721991982076
 30
0.0
 10
21.92423329924622
 20
-47.53251022883477
 30
0.0
 10
22.1589871283868
 20
-47.5795439861231
 30
0.0
 10
22.42476770413941
 20
-47.54398092533188
 30
0.0
 10
22.70934236817084
 20
-47.33611011150458
 30
0.0
 10
22.96592993885133
 20
-46.95775887191018
 30
0.0
 10
23.21151692093463
 20
-46.35259468295828
 30
0.0
 10
23.36715393241502
 20
-45.40299698486797
 30
0.0
 10
23.38708249610954
 20
-44.23988849012618
 30
0.0
 10
22.84555492333675
 20
-42.83661842092283
 30
0.0
 10
22.27463369774068
 20
-41.4372964977241
 30
0.0
 10
21.83414902005825
 20
-40.11210659026653
 30
0.0
 10
21.60914132594007
 20
-39.26658711572043
 30
0.0
 10
21.29998381664518
 20
-38.73034341896232
 30
0.0
 10
20.8203341967328
 20
-38.40343808841828
 30
0.0
 10
20.44873162699605
 20
-38.02971363508539
 30
0.0
 10
20.18716199224036
 20
-37.76574524373712
 30
0.0
 10
20.06179543164944
 20
-37.48121277920154
 30
0.0
 10
20.64164651382453
 20
-36.57223082445762
 30
0.0
 10
20.87429419086493
 20
-34.94330648730886
 30
0.0
 10
21.50824542166356
 20
-32.5467127655968
 30
0.0
 10
22.13980148953397
 20
-29.04124280942881
 30
0.0
 10
22.53100480209105
 20
-24.95967786616962
 30
0.0
 10
22.59080170982906
 20
-20.94111705908233
 30
0.0
 10
22.53565405775589
 20
-18.48785805945829
 30
0.0
 10
22.42287807278444
 20
-17.14054359878844
 30
0.0
 10
22.39144778241461
 20
-16.40950208379115
 30
0.0
 10
22.68332749097408
 20
-15.88314405142523
 30
0.0
 10
23.17584191905462
 20
-15.52574773867457
 30
0.0
 10
23.77347543427914
 20
-15.30412934968035
 30
0.0
 10
24.32538865187598
 20
-14.94867799851443
 30
0.0
 10
24.77068086128748
 20
-14.57759233364504
 30
0.0
 10
25.31064724037424
 20
-13.59562195380624
 30
0.0
 10
25.6501980224848
 20
-12.1478079381003
 30
0.0
 10
26.28935559372712
 20
-10.38185759061036
 30
0.0
 10
26.69458139561084
 20
-8.977197347121432
 30
0.0
 10
27.14463074432024
 20
-7.781782092506318
 30
0.0
 10
27.21417218051283
 20
-6.673766033763513
 30
0.0
 10
27.11207510980239
 20
-5.695574541653627
 30
0.0
 10
26.86475773571601
 20
-4.996926512475397
 30
0.0
 10
26.63900328680029
 20
-4.543935983120832
 30
0.0
 10
26.34108498398109
 20
-4.335754396707784
 30
0.0
 10
26.0424940593075
 20
-4.234385757360428
 30
0.0
 10
25.71691543871202
 20
-4.294257498727006
 30
0.0
 10
25.42390228821478
 20
-4.609846106094437
 30
0.0
 10
25.13539949775441
 20
-5.093535711374443
 30
0.0
 10
24.84330937335471
 20
-6.279850057429257
 30
0.0
 10
24.32237574193186
 20
-7.748708276736351
 30
0.0
 10
23.93356790581856
 20
-9.45196529993143
 30
0.0
 10
23.53187384297052
 20
-10.10582802817521
 30
0.0
 10
23.57533171740306
 20
-10.57852619727657
 30
0.0
 10
23.16935290397305
 20
-10.55147507862682
 30
0.0
 10
22.39558754355585
 20
-10.0411888409601
 30
0.0
 10
21.25842008786822
 20
-9.498219158663232
 30
0.0
 10
20.21054220820588
 20
-8.94108855494494
 30
0.0
 10
19.15524269427351
 20
-7.664647786204795
 30
0.0
 10
17.82171028749599
 20
-5.934086282232101
 30
0.0
 10
15.71648663900487
 20
-4.432144404028576
 30
0.0
 10
13.19852246450045
 20
-3.054455093264436
 30
0.0
 10
10.11547317027271
 20
-1.689189362714159
 30
0.0
 10
6.335316881069047
 20
-0.6966359568332337
 30
0.0
 10
2.939131514245673
 20
-0.1355882973045936
 30
0.0
 10
0.9017021404561091
 20
-0.0415974097476237
 30
0.0
 10
0.0000000000009095
 20
0.0
 30
0.0
  0
SPLINE
  5
2958C
330
29588
100
AcDbEntity
  8
NURUS FURNITURE
100
AcDbSpline
210
0.0
220
0.0
230
1.0
 70
     8
 71
     3
 72
    24
 73
    20
 74
     0
 42
0.0000000001
 43
0.0000000001
 40
0.0
 40
0.0
 40
0.0
 40
0.0
 40
14.33375492206841
 40
26.08379950291452
 40
39.55877923392203
 40
56.37000355808216
 40
70.68130366131565
 40
82.64445505357317
 40
92.29496893022949
 40
101.3587215378665
 40
107.8013982225472
 40
113.6383629627981
 40
121.372145168731
 40
130.3918341865078
 40
152.4819826140217
 40
169.2633206719388
 40
181.3232127051822
 40
197.3411378137157
 40
200.5765340254283
 40
200.5765340254283
 40
200.5765340254283
 40
200.5765340254283
 10
0.0694954953278284
 20
-16.02339230379789
 30
0.0
 10
-0.4092731520277085
 20
-16.01336883174008
 30
0.0
 10
-1.280510694025906
 20
-15.9951286541384
 30
0.0
 10
-2.576556881065698
 20
-15.72874023019392
 30
0.0
 10
-3.920197604926215
 20
-15.32051796417465
 30
0.0
 10
-5.264998416396338
 20
-14.67940027989482
 30
0.0
 10
-6.489065360762651
 20
-13.90445313277075
 30
0.0
 10
-7.314638686044418
 20
-13.03625618775004
 30
0.0
 10
-8.01445292500739
 20
-12.27220837311824
 30
0.0
 10
-8.286435532482755
 20
-11.45947875825277
 30
0.0
 10
-8.360315807925871
 20
-10.74345592740326
 30
0.0
 10
-8.165428173059808
 20
-10.08501246569926
 30
0.0
 10
-7.639963987418923
 20
-9.511523940645929
 30
0.0
 10
-6.481161015713041
 20
-8.907518818373659
 30
0.0
 10
-4.906768472207659
 20
-8.552749495350326
 30
0.0
 10
-3.222353885553275
 20
-8.360053379003261
 30
0.0
 10
-1.732009190928692
 20
-8.224286209778938
 30
0.0
 10
-0.6876108110245696
 20
-8.215080529679994
 30
0.0
 10
-0.0459770110619502
 20
-8.202601396123213
 30
0.0
 10
0.061845402077779
 20
-8.200504358382886
 30
0.0
  0
SPLINE
  5
2958D
330
29588
100
AcDbEntity
  8
NURUS FURNITURE
100
AcDbSpline
210
0.0
220
0.0
230
1.0
 70
     8
 71
     3
 72
    24
 73
    20
 74
     0
 42
0.0000000001
 43
0.0000000001
 40
0.0
 40
0.0
 40
0.0
 40
0.0
 40
14.33375492206841
 40
26.08379950291452
 40
39.55877923392203
 40
56.37000355808216
 40
70.68130366131565
 40
82.64445505357317
 40
92.29496893022949
 40
101.3587215378665
 40
107.8013982225472
 40
113.6383629627981
 40
121.372145168731
 40
130.3918341865078
 40
152.4819826140217
 40
169.2633206719388
 40
181.3232127051822
 40
197.3411378137157
 40
200.5765340254283
 40
200.5765340254283
 40
200.5765340254283
 40
200.5765340254283
 10
0.0378715817814737
 20
-16.02339230379789
 30
0.0
 10
0.5166402291370105
 20
-16.01336883174008
 30
0.0
 10
1.387877771135208
 20
-15.9951286541384
 30
0.0
 10
2.683923958175
 20
-15.72874023019392
 30
0.0
 10
4.027564682035517
 20
-15.32051796417465
 30
0.0
 10
5.37236549350564
 20
-14.67940027989482
 30
0.0
 10
6.596432437871953
 20
-13.90445313277075
 30
0.0
 10
7.42200576315372
 20
-13.03625618775004
 30
0.0
 10
8.121820002116692
 20
-12.27220837311824
 30
0.0
 10
8.393802609592057
 20
-11.45947875825277
 30
0.0
 10
8.467682885035173
 20
-10.74345592740326
 30
0.0
 10
8.27279525016911
 20
-10.08501246569926
 30
0.0
 10
7.747331064528225
 20
-9.511523940645929
 30
0.0
 10
6.588528092822343
 20
-8.907518818373659
 30
0.0
 10
5.014135549316961
 20
-8.552749495350326
 30
0.0
 10
3.329720962662577
 20
-8.360053379003261
 30
0.0
 10
1.839376268037995
 20
-8.224286209778938
 30
0.0
 10
0.7949778881338716
 20
-8.215080529679994
 30
0.0
 10
0.1533440881712522
 20
-8.202601396123213
 30
0.0
 10
0.0455216750315231
 20
-8.200504358382886
 30
0.0
  0
POINT
  5
2958E
330
29588
100
AcDbEntity
  8
NURUS FURNITURE
 62
     6
100
AcDbPoint
 10
0.0290825088932252
 20
-51.18607808453965
 30
0.0
  0
ENDBLK
  5
29592
330
29588
100
AcDbEntity
  8
0
100
AcDbBlockEnd
  0
BLOCK
  5
295A1
330
29594
100
AcDbEntity
  8
0
100
AcDbBlockBegin
  2
Drop Yuvarlak Masa
 70
     0
 10
0.0
 20
0.0
 30
0.0
  3
Drop Yuvarlak Masa
  1

  0
SPLINE
  5
29595
330
29594
100
AcDbEntity
  8
NURUS FURNITURE
100
AcDbSpline
210
0.0
220
0.0
230
1.0
 70
     8
 71
     3
 72
    25
 73
    21
 74
    19
 42
0.0000000001
 43
0.0000000001
 44
0.0000000833333333
 40
0.0
 40
0.0
 40
0.0
 40
0.0
 40
3.71853325125593
 40
8.041874912394138
 40
9.527293100315976
 40
10.59481090486769
 40
12.45834171488
 40
16.45876167034577
 40
17.61261078541078
 40
18.6520528174918
 40
19.60231227324442
 40
20.822572567802
 40
21.51077865471538
 40
21.9055927597146
 40
22.20467029673002
 40
22.77732748276501
 40
23.49566004032566
 40
24.50103217903075
 40
25.46443591145307
 40
26.21627975124668
 40
26.21627975124668
 40
26.21627975124668
 40
26.21627975124668
 10
-0.0749897385376244
 20
24.48137981935906
 30
0.0
 10
-1.289800380685846
 20
24.74456522508786
 30
0.0
 10
-3.917006983363535
 20
25.31374247719873
 30
0.0
 10
-6.706052146914771
 20
27.06377953938466
 30
0.0
 10
-8.17862848182176
 20
28.83806724073679
 30
0.0
 10
-8.570499259800271
 20
30.37714214215532
 30
0.0
 10
-6.857729825969727
 20
32.27703748681597
 30
0.0
 10
-5.326941832956435
 20
33.87915856101506
 30
0.0
 10
-3.79723192048641
 20
35.30420838936448
 30
0.0
 10
-3.334394347495617
 20
36.27551352958949
 30
0.0
 10
-3.19832619099543
 20
37.33652359368387
 30
0.0
 10
-3.12119352460013
 20
38.30783108303819
 30
0.0
 10
-3.372119243130327
 20
39.03954672377859
 30
0.0
 10
-3.521877443796256
 20
39.47802236650955
 30
0.0
 10
-3.509183381158436
 20
39.91155254540093
 30
0.0
 10
-3.198872211019988
 20
40.37707081796475
 30
0.0
 10
-2.562899552039198
 20
40.81700633033551
 30
0.0
 10
-1.707529099742714
 20
41.10940652725014
 30
0.0
 10
-0.8152494608002598
 20
41.28774744773875
 30
0.0
 10
-0.2429645275915391
 20
41.30578790098172
 30
0.0
 10
0.0078849205729057
 20
41.31369552126125
 30
0.0
 11
-0.0749897385376244
 21
24.48137981935906
 31
0.0
 11
-3.661050031905688
 21
25.46507763442833
 31
0.0
 11
-7.283950020997508
 21
27.82428914392312
 31
0.0
 11
-8.159721304535196
 21
29.02407740427407
 31
0.0
 11
-8.369298524843543
 21
30.0708207620055
 31
0.0
 11
-7.402913580872336
 21
31.66419679417959
 31
0.0
 11
-4.616449919441947
 21
34.53455925482513
 31
0.0
 11
-3.829522213472955
 21
35.37842689048694
 31
0.0
 11
-3.378195913252056
 21
36.31477315006487
 31
0.0
 11
-3.216181356572633
 21
37.2511194096428
 31
0.0
 11
-3.212889485233972
 21
38.47137526016331
 31
0.0
 11
-3.403825412578953
 21
39.13256440022906
 31
0.0
 11
-3.505658137066347
 21
39.51401986577366
 31
0.0
 11
-3.492929108086173
 21
39.81282640016571
 31
0.0
 11
-3.206524970744794
 21
40.30871844764442
 31
0.0
 11
-2.630008537489629
 21
40.73723971061008
 31
0.0
 11
-1.689217622217256
 21
41.0917613715469
 31
0.0
 11
-0.7427927888638806
 21
41.27183590875302
 31
0.0
 11
0.0078849205729057
 21
41.31369552126125
 31
0.0
  0
SPLINE
  5
29596
330
29594
100
AcDbEntity
  8
NURUS FURNITURE
100
AcDbSpline
210
0.0
220
0.0
230
1.0
 70
     8
 71
     3
 72
    25
 73
    21
 74
    19
 42
0.0000000001
 43
0.0000000001
 44
0.0000000833333333
 40
0.0
 40
0.0
 40
0.0
 40
0.0
 40
3.718533251257684
 40
8.041874912395892
 40
9.527293100316656
 40
10.59481090486837
 40
12.45834171488068
 40
16.45876167034645
 40
17.61261078541022
 40
18.65205281749203
 40
19.60231227324464
 40
20.82257256780223
 40
21.51077865471611
 40
21.90559275971486
 40
22.20467029673028
 40
22.77732748276527
 40
23.49566004032592
 40
24.50103217902931
 40
25.46443591145342
 40
26.21627975124522
 40
26.21627975124522
 40
26.21627975124522
 40
26.21627975124522
 10
0.0907595796816168
 20
24.48137981935906
 30
0.0
 10
1.305570221829839
 20
24.74456522508797
 30
0.0
 10
3.932776824507527
 20
25.31374247719839
 30
0.0
 10
6.72182198806513
 20
27.06377953938318
 30
0.0
 10
8.194398322963024
 20
28.83806724073725
 30
0.0
 10
8.586269100946992
 20
30.3771421421551
 30
0.0
 10
6.8734996671119
 20
32.2770374868162
 30
0.0
 10
5.342711674094971
 20
33.8791585610137
 30
0.0
 10
3.81300176163495
 20
35.30420838936539
 30
0.0
 10
3.350164188637791
 20
36.27551352958915
 30
0.0
 10
3.214096032141242
 20
37.33652359368387
 30
0.0
 10
3.136963365740484
 20
38.30783108303888
 30
0.0
 10
3.387889084278867
 20
39.03954672377779
 30
0.0
 10
3.537647284938429
 20
39.47802236650978
 30
0.0
 10
3.524953222304247
 20
39.91155254540093
 30
0.0
 10
3.214642052163071
 20
40.37707081796475
 30
0.0
 10
2.578669393186828
 20
40.81700633033529
 30
0.0
 10
1.723298940885797
 20
41.10940652725048
 30
0.0
 10
0.8310193019451617
 20
41.28774744773863
 30
0.0
 10
0.2587343687355315
 20
41.30578790098161
 30
0.0
 10
0.0078849205729057
 20
41.31369552126125
 30
0.0
 11
0.0907595796816168
 21
24.48137981935906
 31
0.0
 11
3.676819873051499
 21
25.46507763442833
 31
0.0
 11
7.299719862143319
 21
27.82428914392312
 31
0.0
 11
8.175491145679188
 21
29.02407740427407
 31
0.0
 11
8.385068365987535
 21
30.0708207620055
 31
0.0
 11
7.418683422016329
 21
31.66419679417959
 31
0.0
 11
4.63221976058594
 21
34.53455925482513
 31
0.0
 11
3.845292054618766
 21
35.37842689048694
 31
0.0
 11
3.393965754396049
 21
36.31477315006487
 31
0.0
 11
3.231951197716625
 21
37.2511194096428
 31
0.0
 11
3.228659326377965
 21
38.47137526016331
 31
0.0
 11
3.419595253724764
 21
39.13256440022906
 31
0.0
 11
3.52142797821034
 21
39.51401986577366
 31
0.0
 11
3.508698949230165
 21
39.81282640016571
 31
0.0
 11
3.222294811888787
 21
40.30871844764442
 31
0.0
 11
2.645778378633622
 21
40.73723971061008
 31
0.0
 11
1.704987463363067
 21
41.0917613715469
 31
0.0
 11
0.758562630007873
 21
41.27183590875302
 31
0.0
 11
0.0078849205729057
 21
41.31369552126125
 31
0.0
  0
CIRCLE
  5
29597
330
29594
100
AcDbEntity
  8
NURUS FURNITURE
100
AcDbCircle
 10
0.0
 20
0.0
 30
0.0
 40
34.78976699728778
  0
SPLINE
  5
29598
330
29594
100
AcDbEntity
  8
NURUS FURNITURE
100
AcDbSpline
210
0.0
220
0.0
230
1.0
 70
     8
 71
     3
 72
    25
 73
    21
 74
    19
 42
0.0000000001
 43
0.0000000001
 44
0.0000000833333333
 40
0.0
 40
0.0
 40
0.0
 40
0.0
 40
3.71853325125593
 40
8.041874912394385
 40
9.527293100315855
 40
10.59481090486802
 40
12.45834171488032
 40
16.45876167034609
 40
17.6126107854111
 40
18.65205281749212
 40
19.60231227324429
 40
20.82257256780234
 40
21.51077865471571
 40
21.90559275971493
 40
22.2046702967299
 40
22.77732748276528
 40
23.49566004032566
 40
24.50103217903075
 40
25.46443591145307
 40
26.21627975124668
 40
26.21627975124668
 40
26.21627975124668
 40
26.21627975124668
 10
-0.0749897385376244
 20
-24.48137981935906
 30
0.0
 10
-1.289800380685846
 20
-24.74456522508786
 30
0.0
 10
-3.917006983366263
 20
-25.31374247719885
 30
0.0
 10
-6.706052146912952
 20
-27.06377953938477
 30
0.0
 10
-8.17862848182267
 20
-28.83806724073713
 30
0.0
 10
-8.57049925980209
 20
-30.37714214215578
 30
0.0
 10
-6.857729825967908
 20
-32.2770374868162
 30
0.0
 10
-5.326941832952797
 20
-33.87915856101586
 30
0.0
 10
-3.79723192048732
 20
-35.30420838936482
 30
0.0
 10
-3.334394347494708
 20
-36.27551352958994
 30
0.0
 10
-3.198326190994521
 20
-37.33652359368387
 30
0.0
 10
-3.12119352459922
 20
-38.30783108303876
 30
0.0
 10
-3.372119243131237
 20
-39.03954672377881
 30
0.0
 10
-3.521877443795347
 20
-39.47802236651012
 30
0.0
 10
-3.509183381158436
 20
-39.91155254540093
 30
0.0
 10
-3.198872211019079
 20
-40.37707081796543
 30
0.0
 10
-2.562899552043745
 20
-40.81700633033563
 30
0.0
 10
-1.707529099741805
 20
-41.10940652724991
 30
0.0
 10
-0.8152494608020788
 20
-41.28774744773898
 30
0.0
 10
-0.2429645275906296
 20
-41.30578790098184
 30
0.0
 10
0.0078849205729057
 20
-41.31369552126125
 30
0.0
 11
-0.0749897385376244
 21
-24.48137981935906
 31
0.0
 11
-3.661050031905688
 21
-25.46507763442833
 31
0.0
 11
-7.283950020997508
 21
-27.82428914392358
 31
0.0
 11
-8.159721304535196
 21
-29.02407740427407
 31
0.0
 11
-8.369298524843543
 21
-30.07082076200595
 31
0.0
 11
-7.402913580872336
 21
-31.66419679418004
 31
0.0
 11
-4.616449919441947
 21
-34.53455925482558
 31
0.0
 11
-3.829522213472955
 21
-35.37842689048739
 31
0.0
 11
-3.378195913252056
 21
-36.31477315006532
 31
0.0
 11
-3.216181356572633
 21
-37.2511194096428
 31
0.0
 11
-3.212889485233972
 21
-38.47137526016377
 31
0.0
 11
-3.403825412578953
 21
-39.13256440022951
 31
0.0
 11
-3.505658137066347
 21
-39.51401986577412
 31
0.0
 11
-3.492929108086173
 21
-39.81282640016571
 31
0.0
 11
-3.206524970744794
 21
-40.30871844764488
 31
0.0
 11
-2.630008537489629
 21
-40.73723971061008
 31
0.0
 11
-1.689217622217256
 21
-41.0917613715469
 31
0.0
 11
-0.7427927888638806
 21
-41.27183590875302
 31
0.0
 11
0.0078849205729057
 21
-41.31369552126125
 31
0.0
  0
SPLINE
  5
29599
330
29594
100
AcDbEntity
  8
NURUS FURNITURE
100
AcDbSpline
210
0.0
220
0.0
230
1.0
 70
     8
 71
     3
 72
    25
 73
    21
 74
    19
 42
0.0000000001
 43
0.0000000001
 44
0.0000000833333333
 40
0.0
 40
0.0
 40
0.0
 40
0.0
 40
3.718533251257684
 40
8.041874912396139
 40
9.527293100316535
 40
10.5948109048687
 40
12.458341714881
 40
16.45876167034677
 40
17.61261078541055
 40
18.65205281749235
 40
19.60231227324452
 40
20.82257256780256
 40
21.51077865471644
 40
21.90559275971519
 40
22.20467029673016
 40
22.77732748276554
 40
23.49566004032592
 40
24.50103217902931
 40
25.46443591145342
 40
26.21627975124522
 40
26.21627975124522
 40
26.21627975124522
 40
26.21627975124522
 10
0.0907595796816168
 20
-24.48137981935906
 30
0.0
 10
1.305570221829839
 20
-24.74456522508786
 30
0.0
 10
3.932776824509346
 20
-25.3137424771985
 30
0.0
 10
6.72182198806422
 20
-27.06377953938352
 30
0.0
 10
8.194398322963024
 20
-28.8380672407377
 30
0.0
 10
8.586269100945173
 20
-30.37714214215566
 30
0.0
 10
6.873499667114629
 20
-32.27703748681631
 30
0.0
 10
5.34271167409679
 20
-33.87915856101415
 30
0.0
 10
3.81300176163495
 20
-35.30420838936584
 30
0.0
 10
3.350164188637791
 20
-36.27551352958938
 30
0.0
 10
3.214096032141242
 20
-37.33652359368387
 30
0.0
 10
3.136963365744122
 20
-38.30783108303922
 30
0.0
 10
3.387889084275229
 20
-39.03954672377836
 30
0.0
 10
3.537647284940248
 20
-39.47802236651035
 30
0.0
 10
3.524953222302428
 20
-39.91155254540093
 30
0.0
 10
3.214642052163981
 20
-40.3770708179652
 30
0.0
 10
2.578669393185009
 20
-40.81700633033483
 30
0.0
 10
1.723298940885797
 20
-41.10940652725071
 30
0.0
 10
0.8310193019460712
 20
-41.28774744773863
 30
0.0
 10
0.2587343687373504
 20
-41.30578790098172
 30
0.0
 10
0.0078849205729057
 20
-41.31369552126125
 30
0.0
 11
0.0907595796816168
 21
-24.48137981935906
 31
0.0
 11
3.676819873051499
 21
-25.46507763442833
 31
0.0
 11
7.299719862143319
 21
-27.82428914392358
 31
0.0
 11
8.175491145679188
 21
-29.02407740427407
 31
0.0
 11
8.385068365987535
 21
-30.07082076200595
 31
0.0
 11
7.418683422016329
 21
-31.66419679418004
 31
0.0
 11
4.63221976058594
 21
-34.53455925482558
 31
0.0
 11
3.845292054618766
 21
-35.37842689048739
 31
0.0
 11
3.393965754396049
 21
-36.31477315006532
 31
0.0
 11
3.231951197716625
 21
-37.2511194096428
 31
0.0
 11
3.228659326377965
 21
-38.47137526016377
 31
0.0
 11
3.419595253724764
 21
-39.13256440022951
 31
0.0
 11
3.52142797821034
 21
-39.51401986577412
 31
0.0
 11
3.508698949230165
 21
-39.81282640016571
 31
0.0
 11
3.222294811888787
 21
-40.30871844764488
 31
0.0
 11
2.645778378633622
 21
-40.73723971061008
 31
0.0
 11
1.704987463363067
 21
-41.0917613715469
 31
0.0
 11
0.758562630007873
 21
-41.27183590875302
 31
0.0
 11
0.0078849205729057
 21
-41.31369552126125
 31
0.0
  0
SPLINE
  5
2959A
330
29594
100
AcDbEntity
  8
NURUS FURNITURE
100
AcDbSpline
210
0.0
220
0.0
230
1.0
 70
     8
 71
     3
 72
    25
 73
    21
 74
    19
 42
0.0000000001
 43
0.0000000001
 44
0.0000000833333333
 40
0.0
 40
0.0
 40
0.0
 40
0.0
 40
3.718533251256945
 40
8.041874912394613
 40
9.527293100316889
 40
10.59481090486928
 40
12.45834171488156
 40
16.45876167034687
 40
17.61261078541074
 40
18.65205281749251
 40
19.60231227324458
 40
20.82257256780365
 40
21.51077865471643
 40
21.90559275971544
 40
22.20467029673052
 40
22.77732748276517
 40
23.49566004032615
 40
24.50103217903081
 40
25.46443591145332
 40
26.21627975124621
 40
26.21627975124621
 40
26.21627975124621
 40
26.21627975124621
 10
24.48137981935906
 20
0.1657493182196958
 30
0.0
 10
24.7445652250899
 20
1.380559960367691
 30
0.0
 10
25.31374247719578
 20
4.00776656304697
 30
0.0
 10
27.063779539385
 20
6.796811726600935
 30
0.0
 10
28.83806724073656
 20
8.269388061501331
 30
0.0
 10
30.37714214215521
 20
8.661258839483593
 30
0.0
 10
32.27703748681597
 20
6.948489405649297
 30
0.0
 10
33.8791585610179
 20
5.417701412636233
 30
0.0
 10
35.30420838936334
 20
3.887991500168936
 30
0.0
 10
36.27551352959017
 20
3.42515392717712
 30
0.0
 10
37.33652359368353
 20
3.289085770677388
 30
0.0
 10
38.30783108303876
 20
3.211953104281292
 30
0.0
 10
39.03954672377949
 20
3.462878822813763
 30
0.0
 10
39.47802236650932
 20
3.612637023477077
 30
0.0
 10
39.9115525453999
 20
3.599942960840735
 30
0.0
 10
40.37707081796543
 20
3.289631790700013
 30
0.0
 10
40.81700633033688
 20
2.65365913172377
 30
0.0
 10
41.10940652724821
 20
1.798288679423194
 30
0.0
 10
41.28774744773727
 20
0.9060090404828997
 30
0.0
 10
41.30578790098115
 20
0.3337241072732695
 30
0.0
 10
41.31369552126125
 20
0.0828746591096206
 30
0.0
 11
24.48137981935906
 21
0.1657493182196958
 31
0.0
 11
25.46507763442787
 21
3.751809611588669
 31
0.0
 11
27.82428914392222
 21
7.374709600680489
 31
0.0
 11
29.02407740427407
 21
8.250480884216813
 31
0.0
 11
30.07082076200641
 21
8.46005810452516
 31
0.0
 11
31.66419679417959
 21
7.493673160553498
 31
0.0
 11
34.53455925482558
 21
4.707209499124019
 31
0.0
 11
35.37842689048739
 21
3.920281793155481
 31
0.0
 11
36.31477315006487
 21
3.468955492933218
 31
0.0
 11
37.25111940964235
 21
3.30694093625425
 31
0.0
 11
38.47137526016377
 21
3.303649064916044
 31
0.0
 11
39.13256440022997
 21
3.494584992261479
 31
0.0
 11
39.51401986577366
 21
3.596417716747964
 31
0.0
 11
39.81282640016616
 21
3.583688687768244
 31
0.0
 11
40.30871844764442
 21
3.297284550425956
 31
0.0
 11
40.73723971061008
 21
2.720768117171701
 31
0.0
 11
41.09176137154645
 21
1.779977201899782
 31
0.0
 11
41.27183590875211
 21
0.833552368545952
 31
0.0
 11
41.31369552126125
 21
0.0828746591096206
 31
0.0
  0
SPLINE
  5
2959B
330
29594
100
AcDbEntity
  8
NURUS FURNITURE
100
AcDbSpline
210
0.0
220
0.0
230
1.0
 70
     8
 71
     3
 72
    25
 73
    21
 74
    19
 42
0.0000000001
 43
0.0000000001
 44
0.0000000833333333
 40
0.0
 40
0.0
 40
0.0
 40
0.0
 40
3.718533251256945
 40
8.041874912394613
 40
9.527293100317157
 40
10.59481090486945
 40
12.45834171488151
 40
16.45876167034681
 40
17.61261078541068
 40
18.65205281749265
 40
19.60231227324465
 40
20.82257256780371
 40
21.51077865471663
 40
21.90559275971564
 40
22.20467029673073
 40
22.77732748276515
 40
23.4956600403265
 40
24.50103217903074
 40
25.46443591145325
 40
26.21627975124614
 40
26.21627975124614
 40
26.21627975124614
 40
26.21627975124614
 10
24.48137981935906
 20
0.0
 30
0.0
 10
24.7445652250899
 20
-1.214810642147881
 30
0.0
 10
25.31374247719578
 20
-3.842017244827502
 30
0.0
 10
27.063779539385
 20
-6.631062408380785
 30
0.0
 10
28.83806724073656
 20
-8.103638743282317
 30
0.0
 10
30.37714214215521
 20
-8.495509521263556
 30
0.0
 10
32.27703748681961
 20
-6.78274008743017
 30
0.0
 10
33.87915856101972
 20
-5.251952094416992
 30
0.0
 10
35.30420838936152
 20
-3.722242181949923
 30
0.0
 10
36.27551352959199
 20
-3.259404608956856
 30
0.0
 10
37.33652359367989
 20
-3.123336452458715
 30
0.0
 10
38.3078310830424
 20
-3.0462037860608
 30
0.0
 10
39.03954672377949
 20
-3.297129504594749
 30
0.0
 10
39.4780223665075
 20
-3.446887705257836
 30
0.0
 10
39.9115525453999
 20
-3.434193642621039
 30
0.0
 10
40.37707081796361
 20
-3.123882472481
 30
0.0
 10
40.8170063303387
 20
-2.48790981350362
 30
0.0
 10
41.10940652725003
 20
-1.632539361203953
 30
0.0
 10
41.28774744773727
 20
-0.740259722263545
 30
0.0
 10
41.30578790098115
 20
-0.1679747890539147
 30
0.0
 10
41.31369552126125
 20
0.0828746591096206
 30
0.0
 11
24.48137981935906
 21
0.0
 31
0.0
 11
25.46507763442787
 21
-3.586060293368973
 31
0.0
 11
27.82428914392222
 21
-7.208960282460793
 31
0.0
 11
29.02407740427407
 21
-8.084731565997572
 31
0.0
 11
30.07082076200641
 21
-8.294308786305464
 31
0.0
 11
31.66419679417959
 21
-7.327923842334257
 31
0.0
 11
34.53455925482558
 21
-4.541460180904778
 31
0.0
 11
35.37842689048739
 21
-3.75453247493624
 31
0.0
 11
36.31477315006487
 21
-3.303206174713523
 31
0.0
 11
37.25111940964235
 21
-3.141191618035009
 31
0.0
 11
38.47137526016377
 21
-3.137899746696348
 31
0.0
 11
39.13256440022997
 21
-3.328835674042238
 31
0.0
 11
39.51401986577366
 21
-3.430668398528723
 31
0.0
 11
39.81282640016616
 21
-3.417939369548548
 31
0.0
 11
40.30871844764442
 21
-3.131535232206715
 31
0.0
 11
40.73723971061008
 21
-2.555018798952005
 31
0.0
 11
41.09176137154645
 21
-1.614227883680541
 31
0.0
 11
41.27183590875211
 21
-0.667803050326711
 31
0.0
 11
41.31369552126125
 21
0.0828746591096206
 31
0.0
  0
SPLINE
  5
2959C
330
29594
100
AcDbEntity
  8
NURUS FURNITURE
100
AcDbSpline
210
0.0
220
0.0
230
1.0
 70
     8
 71
     3
 72
    25
 73
    21
 74
    19
 42
0.0000000001
 43
0.0000000001
 44
0.0000000833333333
 40
0.0
 40
0.0
 40
0.0
 40
0.0
 40
3.718533251257186
 40
8.04187491239535
 40
9.527293100316157
 40
10.59481090486854
 40
12.45834171488005
 40
16.45876167034601
 40
17.61261078541055
 40
18.6520528174915
 40
19.60231227324358
 40
20.82257256780173
 40
21.51077865471626
 40
21.90559275971439
 40
22.20467029673038
 40
22.77732748276503
 40
23.49566004032547
 40
24.50103217903013
 40
25.46443591145298
 40
26.21627975124577
 40
26.21627975124577
 40
26.21627975124577
 40
26.21627975124577
 10
-24.48137981935906
 20
0.1657493182196958
 30
0.0
 10
-24.74456522508717
 20
1.380559960367804
 30
0.0
 10
-25.31374247719668
 20
4.007766563047425
 30
0.0
 10
-27.06377953938318
 20
6.79681172659923
 30
0.0
 10
-28.83806724073838
 20
8.269388061501672
 30
0.0
 10
-30.37714214215521
 20
8.661258839483593
 30
0.0
 10
-32.27703748681688
 20
6.948489405648501
 30
0.0
 10
-33.87915856101972
 20
5.417701412635665
 30
0.0
 10
-35.30420838936334
 20
3.887991500169619
 30
0.0
 10
-36.27551352959108
 20
3.425153927176552
 30
0.0
 10
-37.33652359368353
 20
3.289085770677729
 30
0.0
 10
-38.30783108303786
 20
3.211953104281292
 30
0.0
 10
-39.0395467237804
 20
3.462878822813422
 30
0.0
 10
-39.47802236651023
 20
3.612637023476963
 30
0.0
 10
-39.91155254540172
 20
3.599942960840849
 30
0.0
 10
-40.37707081796179
 20
3.289631790700582
 30
0.0
 10
-40.8170063303396
 20
2.653659131723088
 30
0.0
 10
-41.10940652725003
 20
1.798288679423194
 30
0.0
 10
-41.28774744773727
 20
0.9060090404830134
 30
0.0
 10
-41.30578790098207
 20
0.3337241072731558
 30
0.0
 10
-41.31369552126125
 20
0.0828746591096206
 30
0.0
 11
-24.48137981935906
 21
0.1657493182196958
 31
0.0
 11
-25.46507763442787
 21
3.751809611588669
 31
0.0
 11
-27.82428914392403
 21
7.374709600680489
 31
0.0
 11
-29.02407740427407
 21
8.250480884216813
 31
0.0
 11
-30.07082076200641
 21
8.46005810452516
 31
0.0
 11
-31.66419679417959
 21
7.493673160553498
 31
0.0
 11
-34.53455925482558
 21
4.707209499124019
 31
0.0
 11
-35.37842689048739
 21
3.920281793155481
 31
0.0
 11
-36.31477315006487
 21
3.468955492933218
 31
0.0
 11
-37.25111940964235
 21
3.30694093625425
 31
0.0
 11
-38.47137526016377
 21
3.303649064916044
 31
0.0
 11
-39.13256440022997
 21
3.494584992261479
 31
0.0
 11
-39.51401986577366
 21
3.596417716747964
 31
0.0
 11
-39.81282640016616
 21
3.583688687768244
 31
0.0
 11
-40.30871844764442
 21
3.297284550425956
 31
0.0
 11
-40.73723971061008
 21
2.720768117171701
 31
0.0
 11
-41.09176137154645
 21
1.779977201899782
 31
0.0
 11
-41.27183590875392
 21
0.833552368545952
 31
0.0
 11
-41.31369552126125
 21
0.0828746591096206
 31
0.0
  0
SPLINE
  5
2959D
330
29594
100
AcDbEntity
  8
NURUS FURNITURE
100
AcDbSpline
210
0.0
220
0.0
230
1.0
 70
     8
 71
     3
 72
    25
 73
    21
 74
    19
 42
0.0000000001
 43
0.0000000001
 44
0.0000000833333333
 40
0.0
 40
0.0
 40
0.0
 40
0.0
 40
3.718533251257186
 40
8.04187491239535
 40
9.527293100316425
 40
10.59481090486872
 40
12.45834171488
 40
16.45876167034596
 40
17.61261078541049
 40
18.65205281749164
 40
19.60231227324364
 40
20.8225725678018
 40
21.51077865471645
 40
21.90559275971459
 40
22.20467029673059
 40
22.77732748276501
 40
23.49566004032582
 40
24.50103217903005
 40
25.4644359114529
 40
26.21627975124569
 40
26.21627975124569
 40
26.21627975124569
 40
26.21627975124569
 10
-24.48137981935906
 20
0.0
 30
0.0
 10
-24.74456522508808
 20
-1.214810642148336
 30
0.0
 10
-25.31374247719759
 20
-3.842017244827729
 30
0.0
 10
-27.063779539385
 20
-6.631062408378852
 30
0.0
 10
-28.83806724073656
 20
-8.103638743282886
 30
0.0
 10
-30.37714214215612
 20
-8.495509521263329
 30
0.0
 10
-32.27703748681324
 20
-6.782740087430056
 30
0.0
 10
-33.8791585610179
 20
-5.251952094416424
 30
0.0
 10
-35.30420838936425
 20
-3.72224218195015
 30
0.0
 10
-36.27551352959199
 20
-3.259404608957083
 30
0.0
 10
-37.3365235936817
 20
-3.123336452458374
 30
0.0
 10
-38.30783108304149
 20
-3.046203786061482
 30
0.0
 10
-39.03954672377768
 20
-3.297129504594181
 30
0.0
 10
-39.47802236651023
 20
-3.446887705258177
 30
0.0
 10
-39.91155254540081
 20
-3.434193642620584
 30
0.0
 10
-40.37707081796543
 20
-3.123882472481341
 30
0.0
 10
-40.81700633033688
 20
-2.48790981350362
 30
0.0
 10
-41.10940652724821
 20
-1.632539361203726
 30
0.0
 10
-41.28774744773818
 20
-0.7402597222638861
 30
0.0
 10
-41.30578790098297
 20
-0.1679747890539147
 30
0.0
 10
-41.31369552126125
 20
0.0828746591096206
 30
0.0
 11
-24.48137981935906
 21
0.0
 31
0.0
 11
-25.46507763442787
 21
-3.586060293368973
 31
0.0
 11
-27.82428914392403
 21
-7.208960282460793
 31
0.0
 11
-29.02407740427407
 21
-8.084731565997572
 31
0.0
 11
-30.07082076200641
 21
-8.294308786305464
 31
0.0
 11
-31.66419679417959
 21
-7.327923842334257
 31
0.0
 11
-34.53455925482558
 21
-4.541460180904778
 31
0.0
 11
-35.37842689048739
 21
-3.75453247493624
 31
0.0
 11
-36.31477315006487
 21
-3.303206174713523
 31
0.0
 11
-37.25111940964235
 21
-3.141191618035009
 31
0.0
 11
-38.47137526016377
 21
-3.137899746696348
 31
0.0
 11
-39.13256440022997
 21
-3.328835674042238
 31
0.0
 11
-39.51401986577366
 21
-3.430668398528723
 31
0.0
 11
-39.81282640016616
 21
-3.417939369548548
 31
0.0
 11
-40.30871844764442
 21
-3.131535232206715
 31
0.0
 11
-40.73723971061008
 21
-2.555018798952005
 31
0.0
 11
-41.09176137154645
 21
-1.614227883680541
 31
0.0
 11
-41.27183590875392
 21
-0.667803050326711
 31
0.0
 11
-41.31369552126125
 21
0.0828746591096206
 31
0.0
  0
POINT
  5
2959E
330
29594
100
AcDbEntity
  8
NURUS FURNITURE
 62
     6
100
AcDbPoint
 10
0.0
 20
0.0
 30
0.0
  0
ENDBLK
  5
295A2
330
29594
100
AcDbEntity
  8
0
100
AcDbBlockEnd
  0
BLOCK
  5
29671
330
29670
100
AcDbEntity
  8
0
100
AcDbBlockBegin
  2
Drop Chair_SIDE
 70
     0
 10
0.0
 20
0.0
 30
0.0
  3
Drop Chair_SIDE
  1

  0
ARC
  5
29673
330
29670
100
AcDbEntity
  8
NURUS ELEVATION
100
AcDbCircle
 10
38.47536049072505
 20
72.54015356600689
 30
0.0
 40
2.965954992319973
100
AcDbArc
 50
16.65424206682287
 51
53.63139337547258
  0
ARC
  5
29674
330
29670
100
AcDbEntity
  8
NURUS ELEVATION
100
AcDbCircle
 10
40.83787282161938
 20
73.24688513492628
 30
0.0
 40
0.500000000001819
100
AcDbArc
 50
335.0718594177714
 51
16.65424206682287
  0
ARC
  5
29675
330
29670
100
AcDbEntity
  8
NURUS ELEVATION
100
AcDbCircle
 10
166.6779417261869
 20
14.75872987358787
 30
0.0
 40
138.2681060179299
100
AcDbArc
 50
155.0718594177713
 51
163.5771108405444
  0
ARC
  5
29676
330
29670
100
AcDbEntity
  8
NURUS ELEVATION
100
AcDbCircle
 10
40.03773517054196
 20
74.43702173672625
 30
0.0
 40
0.5291601592847691
100
AcDbArc
 50
68.2165970931552
 51
138.4537426960028
  0
ARC
  5
29677
330
29670
100
AcDbEntity
  8
NURUS ELEVATION
100
AcDbCircle
 10
71.59207357932428
 20
52.40534396748683
 30
0.0
 40
39.01036313529642
100
AcDbArc
 50
144.987081051149
 51
158.1319168722782
  0
LINE
  5
29678
330
29670
100
AcDbEntity
  8
NURUS ELEVATION
100
AcDbLine
 10
35.38874464125001
 20
66.93556783870997
 30
0.0
 11
33.92018046293924
 21
63.31637156782562
 31
0.0
  0
LINE
  5
29679
330
29670
100
AcDbEntity
  8
NURUS ELEVATION
100
AcDbLine
 10
33.92018046293924
 20
63.31637156782562
 30
0.0
 11
31.46403909942683
 21
56.62641559923975
 31
0.0
  0
LINE
  5
2967A
330
29670
100
AcDbEntity
  8
NURUS ELEVATION
100
AcDbLine
 10
31.46403909942683
 20
56.62641559923975
 30
0.0
 11
30.09912373350971
 21
52.82157731661221
 31
0.0
  0
LINE
  5
2967B
330
29670
100
AcDbEntity
  8
NURUS ELEVATION
100
AcDbLine
 10
30.09912373350971
 20
52.82157731661221
 30
0.0
 11
29.41437059132659
 21
51.15088583811496
 31
0.0
  0
ARC
  5
2967C
330
29670
100
AcDbEntity
  8
NURUS ELEVATION
100
AcDbCircle
 10
19.12212885332064
 20
54.96357930524016
 30
0.0
 40
10.97574013303456
100
AcDbArc
 50
276.988185513143
 51
339.673181533975
  0
LINE
  5
2967D
330
29670
100
AcDbEntity
  8
NURUS ELEVATION
100
AcDbLine
 10
20.45748872175591
 20
44.06937508974715
 30
0.0
 11
19.2163515798311
 21
43.96299693276557
 31
0.0
  0
LINE
  5
2967E
330
29670
100
AcDbEntity
  8
NURUS ELEVATION
100
AcDbLine
 10
19.2163515798311
 20
43.96299693276557
 30
0.0
 11
16.57427801961785
 21
43.98933159051842
 31
0.0
  0
LINE
  5
2967F
330
29670
100
AcDbEntity
  8
NURUS ELEVATION
100
AcDbLine
 10
16.57427801961785
 20
43.98933159051842
 30
0.0
 11
-8.140009422247203
 21
43.36754735647412
 31
0.0
  0
ARC
  5
29680
330
29670
100
AcDbEntity
  8
NURUS ELEVATION
100
AcDbCircle
 10
-7.971672247437709
 20
42.70406695882797
 30
0.0
 40
0.6845024780719187
100
AcDbArc
 50
104.2365829030476
 51
179.9003764144288
  0
LINE
  5
29681
330
29670
100
AcDbEntity
  8
NURUS ELEVATION
100
AcDbLine
 10
-8.656173690786545
 20
42.70525714347025
 30
0.0
 11
-7.858209873824307
 21
40.53843808453268
 31
0.0
  0
ARC
  5
29682
330
29670
100
AcDbEntity
  8
NURUS ELEVATION
100
AcDbCircle
 10
-6.883793280124336
 20
41.29631711084778
 30
0.0
 40
1.273032846918574
100
AcDbArc
 50
229.1896488861029
 51
267.999948884856
  0
ARC
  5
29683
330
29670
100
AcDbEntity
  8
NURUS ELEVATION
100
AcDbCircle
 10
-7.389014582038726
 20
40.71122633115021
 30
0.0
 40
0.500000000001819
100
AcDbArc
 50
200.216991021471
 51
229.1896488861029
  0
LINE
  5
29684
330
29670
100
AcDbEntity
  8
NURUS ELEVATION
100
AcDbLine
 10
-6.928222620789256
 20
40.02405980078401
 30
0.0
 11
-4.352717377933913
 21
39.8251638329989
 31
0.0
  0
ARC
  5
29685
330
29670
100
AcDbEntity
  8
NURUS ELEVATION
100
AcDbCircle
 10
-3.567075330854549
 20
62.69868521950503
 30
0.0
 40
22.88700972273709
100
AcDbArc
 50
268.0328221532696
 51
276.7801604396203
  0
ARC
  5
29686
330
29670
100
AcDbEntity
  8
NURUS ELEVATION
100
AcDbCircle
 10
-12.96014098569367
 20
38.17468826105278
 30
0.0
 40
12.22787988887543
100
AcDbArc
 50
353.0699800044353
 51
8.450982105759416
  0
LINE
  5
29687
330
29670
100
AcDbEntity
  8
NURUS ELEVATION
100
AcDbLine
 10
-0.8215948051310988
 20
36.69930925920358
 30
0.0
 11
-5.040677130290532
 21
0.1086020770374034
 31
0.0
  0
ARC
  5
29688
330
29670
100
AcDbEntity
  8
NURUS ELEVATION
100
AcDbCircle
 10
-4.543968146715542
 20
0.0513291721191536
 30
0.0
 40
0.500000000001819
100
AcDbArc
 50
173.4225712424725
 51
270.0
  0
LINE
  5
29689
330
29670
100
AcDbEntity
  8
NURUS ELEVATION
100
AcDbLine
 10
36.34413117255872
 20
-0.4486708278807328
 30
0.0
 11
32.45909903138363
 21
-0.4486708278807328
 31
0.0
  0
LINE
  5
2968A
330
29670
100
AcDbEntity
  8
NURUS ELEVATION
100
AcDbLine
 10
-0.4973583377118303
 20
-0.4486708278807328
 30
0.0
 11
-4.543968146715542
 21
-0.4486708278809602
 31
0.0
  0
LINE
  5
2968B
330
29670
100
AcDbEntity
  8
NURUS ELEVATION
100
AcDbLine
 10
0.0
 20
0.0000000000003411
 30
0.0
 11
3.464204129103109
 21
33.56669776664728
 31
0.0
  0
ARC
  5
2968C
330
29670
100
AcDbEntity
  8
NURUS ELEVATION
100
AcDbCircle
 10
-0.4973583377118303
 20
0.0513291721193809
 30
0.0
 40
0.500000000001819
100
AcDbArc
 50
270.0
 51
354.1077295580025
  0
LINE
  5
2968D
330
29670
100
AcDbEntity
  8
NURUS ELEVATION
100
AcDbLine
 10
3.464204129103109
 20
33.56669776664728
 30
0.0
 11
4.230727580880284
 21
38.51806340293024
 31
0.0
  0
ARC
  5
2968E
330
29670
100
AcDbEntity
  8
NURUS ELEVATION
100
AcDbCircle
 10
5.780177732796346
 20
38.53522586495751
 30
0.0
 40
1.549545198881123
100
AcDbArc
 50
107.700687675938
 51
180.6346099145631
  0
LINE
  5
2968F
330
29670
100
AcDbEntity
  8
NURUS ELEVATION
100
AcDbLine
 10
5.309047045417628
 20
40.01141223488878
 30
0.0
 11
7.225402345095062
 21
40.04658286333381
 31
0.0
  0
LINE
  5
29690
330
29670
100
AcDbEntity
  8
NURUS ELEVATION
100
AcDbLine
 10
7.225402345095062
 20
40.04658286333381
 30
0.0
 11
8.373838249347954
 21
40.02865104046009
 31
0.0
  0
LINE
  5
29691
330
29670
100
AcDbEntity
  8
NURUS ELEVATION
100
AcDbLine
 10
8.373838249347954
 20
40.02865104046009
 30
0.0
 11
12.26552449320525
 21
39.70293290506163
 31
0.0
  0
LINE
  5
29692
330
29670
100
AcDbEntity
  8
NURUS ELEVATION
100
AcDbLine
 10
12.26552449320525
 20
39.70293290506163
 30
0.0
 11
14.68052416458749
 21
39.37764790548749
 31
0.0
  0
ARC
  5
29693
330
29670
100
AcDbEntity
  8
NURUS ELEVATION
100
AcDbCircle
 10
19.42677141097874
 20
64.18234886239758
 30
0.0
 40
25.25470357160833
100
AcDbArc
 50
259.1676919097437
 51
286.5488079590905
  0
LINE
  5
29694
330
29670
100
AcDbEntity
  8
NURUS ELEVATION
100
AcDbLine
 10
36.8390942343176
 20
0.1221215975308496
 30
0.0
 11
31.00635984607425
 21
40.90315225768677
 31
0.0
  0
ARC
  5
29695
330
29670
100
AcDbEntity
  8
NURUS ELEVATION
100
AcDbCircle
 10
36.34413117255872
 20
0.0513291721193809
 30
0.0
 40
0.500000000001819
100
AcDbArc
 50
270.0
 51
8.139565119954719
  0
ARC
  5
29696
330
29670
100
AcDbEntity
  8
NURUS ELEVATION
100
AcDbCircle
 10
42.20240047865718
 20
43.28522902965699
 30
0.0
 40
11.44664210998355
100
AcDbArc
 50
158.5230014233815
 51
192.0111869209918
  0
LINE
  5
29697
330
29670
100
AcDbEntity
  8
NURUS ELEVATION
100
AcDbLine
 10
31.55056025458134
 20
47.47616155532421
 30
0.0
 11
33.6196518791462
 21
52.57962764849299
 31
0.0
  0
LINE
  5
29698
330
29670
100
AcDbEntity
  8
NURUS ELEVATION
100
AcDbLine
 10
33.6196518791462
 20
52.57962764849299
 30
0.0
 11
34.05102163838319
 21
53.85053476666474
 31
0.0
  0
LINE
  5
29699
330
29670
100
AcDbEntity
  8
NURUS ELEVATION
100
AcDbLine
 10
31.96350387587245
 20
-0.0148934964738601
 30
0.0
 11
26.3075142764028
 21
42.31322623419794
 31
0.0
  0
ARC
  5
2969A
330
29670
100
AcDbEntity
  8
NURUS ELEVATION
100
AcDbCircle
 10
32.45909903138363
 20
0.0513291721193809
 30
0.0
 40
0.500000000001819
100
AcDbArc
 50
187.6109219427401
 51
270.0
  0
ARC
  5
2969B
330
29670
100
AcDbEntity
  8
NURUS ELEVATION
100
AcDbCircle
 10
25.92931781819152
 20
42.12353989012069
 30
0.0
 40
0.4230998347119364
100
AcDbArc
 50
26.63628514175925
 51
130.7118154599776
  0
ARC
  5
2969C
330
29670
100
AcDbEntity
  8
NURUS ELEVATION
100
AcDbCircle
 10
18.57975460356147
 20
56.40249501655773
 30
0.0
 40
15.64826986353867
100
AcDbArc
 50
278.4785282234189
 51
296.8744424495668
  0
ARC
  5
2969D
330
29670
100
AcDbEntity
  8
NURUS ELEVATION
100
AcDbCircle
 10
19.72910202899811
 20
41.99111704008396
 30
0.0
 40
1.573728944744515
100
AcDbArc
 50
239.3401373729115
 51
317.3675677856763
  0
LINE
  5
2969E
330
29670
100
AcDbEntity
  8
NURUS ELEVATION
100
AcDbLine
 10
18.92659399695867
 20
40.63738011954661
 30
0.0
 11
9.002913298174462
 21
39.97600004572666
 31
0.0
  0
ARC
  5
2969F
330
29670
100
AcDbEntity
  8
NURUS ELEVATION
100
AcDbCircle
 10
22.16438395759496
 20
52.15726229072846
 30
0.0
 40
11.71879345956641
100
AcDbArc
 50
317.4306053815083
 51
5.178960652276366
  0
ENDBLK
  5
29672
330
29670
100
AcDbEntity
  8
0
100
AcDbBlockEnd
  0
BLOCK
  5
296A2
330
296A1
100
AcDbEntity
  8
0
100
AcDbBlockBegin
  2
Drop_FRONT
 70
     0
 10
0.0
 20
0.0
 30
0.0
  3
Drop_FRONT
  1

  0
ARC
  5
296A4
330
296A1
100
AcDbEntity
  8
NURUS ELEVATION
100
AcDbCircle
 10
19.17717205514145
 20
56.80017282605366
 30
0.0
 40
18.02626332173436
100
AcDbArc
 50
33.90878208430387
 51
86.45383132457087
  0
ARC
  5
296A5
330
296A1
100
AcDbEntity
  8
NURUS ELEVATION
100
AcDbCircle
 10
-10.62789490402474
 20
38.71470506236551
 30
0.0
 40
52.87642371274138
100
AcDbArc
 50
5.482274286779942
 51
32.15548596848406
  0
ARC
  5
296A6
330
296A1
100
AcDbEntity
  8
NURUS ELEVATION
100
AcDbCircle
 10
24.90743275144178
 20
219.0065414801744
 30
0.0
 40
176.0723999389085
100
AcDbArc
 50
268.4979662989552
 51
275.5730495617754
  0
ARC
  5
296A7
330
296A1
100
AcDbEntity
  8
NURUS ELEVATION
100
AcDbCircle
 10
20.40127704673296
 20
41.5262909698871
 30
0.0
 40
8.354016429225827
100
AcDbArc
 50
9.975804196371234
 51
90.74848564175388
  0
ARC
  5
296A8
330
296A1
100
AcDbEntity
  8
NURUS ELEVATION
100
AcDbCircle
 10
21.940403235124
 20
36.74767219647652
 30
0.0
 40
23.35960141363573
100
AcDbArc
 50
9.40782341214264
 51
35.48099184672739
  0
LINE
  5
296A9
330
296A1
100
AcDbEntity
  8
NURUS ELEVATION
100
AcDbLine
 10
44.98581453338874
 20
40.56604833007611
 30
0.0
 11
45.58793114371019
 21
25.14034929571608
 31
0.0
  0
LINE
  5
296AA
330
296A1
100
AcDbEntity
  8
NURUS ELEVATION
100
AcDbLine
 10
45.58793114371019
 20
25.14034929571608
 30
0.0
 11
46.58435952742729
 21
0.0404591577990914
 31
0.0
  0
ARC
  5
296AB
330
296A1
100
AcDbEntity
  8
NURUS ELEVATION
100
AcDbCircle
 10
46.08475305538286
 20
0.0206255224048846
 30
0.0
 40
0.500000000001819
100
AcDbArc
 50
270.0
 51
2.273363653695695
  0
LINE
  5
296AC
330
296A1
100
AcDbEntity
  8
NURUS ELEVATION
100
AcDbLine
 10
46.08475305538286
 20
-0.4793744775952291
 30
0.0
 11
44.77104683442393
 21
-0.4793744775946607
 31
0.0
  0
LINE
  5
296AD
330
296A1
100
AcDbEntity
  8
NURUS ELEVATION
100
AcDbLine
 10
42.33945317144889
 20
-0.4793744775950018
 30
0.0
 11
41.08386867166609
 21
-0.4793744775952291
 31
0.0
  0
LINE
  5
296AE
330
296A1
100
AcDbEntity
  8
NURUS ELEVATION
100
AcDbLine
 10
44.27145443646759
 20
0.0004404807566516
 30
0.0
 11
42.61990237452301
 21
40.8773863563041
 31
0.0
  0
ARC
  5
296AF
330
296A1
100
AcDbEntity
  8
NURUS ELEVATION
100
AcDbCircle
 10
44.77104683442393
 20
0.020625522405453
 30
0.0
 40
0.500000000001819
100
AcDbArc
 50
182.3136641285333
 51
270.0
  0
ARC
  5
296B0
330
296A1
100
AcDbEntity
  8
NURUS ELEVATION
100
AcDbCircle
 10
39.24752762967819
 20
39.7126583937295
 30
0.0
 40
3.567842856192607
100
AcDbArc
 50
19.05354216147029
 51
36.72983577234892
  0
ARC
  5
296B1
330
296A1
100
AcDbEntity
  8
NURUS ELEVATION
100
AcDbCircle
 10
39.91332951250706
 20
42.69434391920606
 30
0.0
 40
2.351881882696176
100
AcDbArc
 50
276.02600111526
 51
27.11835134781779
  0
LINE
  5
296B2
330
296A1
100
AcDbEntity
  8
NURUS ELEVATION
100
AcDbLine
 10
39.87594573980823
 20
40.97371576230114
 30
0.0
 11
40.91261043750273
 21
38.80145300615834
 31
0.0
  0
LINE
  5
296B3
330
296A1
100
AcDbEntity
  8
NURUS ELEVATION
100
AcDbLine
 10
40.91261043750273
 20
38.80145300615834
 30
0.0
 11
41.11337483221769
 21
38.23335206682794
 31
0.0
  0
LINE
  5
296B4
330
296A1
100
AcDbEntity
  8
NURUS ELEVATION
100
AcDbLine
 10
41.11337483221769
 20
38.23335206682794
 30
0.0
 11
41.31396265313242
 21
36.98011689004
 31
0.0
  0
LINE
  5
296B5
330
296A1
100
AcDbEntity
  8
NURUS ELEVATION
100
AcDbLine
 10
41.31396265313242
 20
36.98011689004
 30
0.0
 11
42.83902757814622
 21
0.0412510448095418
 31
0.0
  0
ARC
  5
296B6
330
296A1
100
AcDbEntity
  8
NURUS ELEVATION
100
AcDbCircle
 10
42.33945317144889
 20
0.020625522405112
 30
0.0
 40
0.500000000001819
100
AcDbArc
 50
270.0
 51
2.364181592740315
  0
LINE
  5
296B7
330
296A1
100
AcDbEntity
  8
NURUS ELEVATION
100
AcDbLine
 10
39.05752624160005
 20
36.98011689004
 30
0.0
 11
40.58429426496878
 21
0.0000000000005684
 31
0.0
  0
ARC
  5
296B8
330
296A1
100
AcDbEntity
  8
NURUS ELEVATION
100
AcDbCircle
 10
41.08386867166609
 20
0.0206255224048846
 30
0.0
 40
0.500000000001819
100
AcDbArc
 50
182.3641815927403
 51
270.0
  0
ARC
  5
296B9
330
296A1
100
AcDbEntity
  8
NURUS ELEVATION
100
AcDbCircle
 10
34.97165345160193
 20
36.17388947190318
 30
0.0
 40
4.164655940867837
100
AcDbArc
 50
11.16225033229004
 51
74.23340801069089
  0
LINE
  5
296BA
330
296A1
100
AcDbEntity
  8
NURUS ELEVATION
100
AcDbLine
 10
36.10327022773845
 20
40.18185685920343
 30
0.0
 11
26.93397009357432
 21
40.18185685920343
 31
0.0
  0
ARC
  5
296BB
330
296A1
100
AcDbEntity
  8
NURUS ELEVATION
100
AcDbCircle
 10
20.20117520863596
 20
-9.294489449695447
 30
0.0
 40
49.93234794256583
100
AcDbArc
 50
82.25072804633164
 51
89.89561255622289
  0
ARC
  5
296BC
330
296A1
100
AcDbEntity
  8
NURUS ELEVATION
100
AcDbCircle
 10
20.95795632392128
 20
56.29869719207817
 30
0.0
 40
17.18910360932863
100
AcDbArc
 50
267.7801284352128
 51
290.344434666807
  0
ARC
  5
296BD
330
296A1
100
AcDbEntity
  8
NURUS ELEVATION
100
AcDbCircle
 10
21.40712220982686
 20
56.80017282605366
 30
0.0
 40
18.02626332173436
100
AcDbArc
 50
93.5461686762121
 51
146.0912179156961
  0
ARC
  5
296BE
330
296A1
100
AcDbEntity
  8
NURUS ELEVATION
100
AcDbCircle
 10
51.21218916899351
 20
38.71470506236551
 30
0.0
 40
52.87642371274138
100
AcDbArc
 50
147.8445140319191
 51
174.5177257132849
  0
ARC
  5
296BF
330
296A1
100
AcDbEntity
  8
NURUS ELEVATION
100
AcDbCircle
 10
15.67686151352654
 20
219.0065414801744
 30
0.0
 40
176.0723999389085
100
AcDbArc
 50
264.4269504374392
 51
271.5020337010447
  0
ARC
  5
296C0
330
296A1
100
AcDbEntity
  8
NURUS ELEVATION
100
AcDbCircle
 10
20.18301721823537
 20
41.5262909698871
 30
0.0
 40
8.354016429225827
100
AcDbArc
 50
89.25151435746444
 51
170.0241958035646
  0
ARC
  5
296C1
330
296A1
100
AcDbEntity
  8
NURUS ELEVATION
100
AcDbCircle
 10
18.64389102984478
 20
36.74767219647652
 30
0.0
 40
23.35960141363573
100
AcDbArc
 50
144.5190081529599
 51
170.5921765880479
  0
LINE
  5
296C2
330
296A1
100
AcDbEntity
  8
NURUS ELEVATION
100
AcDbLine
 10
-4.401520268419972
 20
40.56604833007611
 30
0.0
 11
-5.003636878741872
 21
25.14034929571608
 31
0.0
  0
LINE
  5
296C3
330
296A1
100
AcDbEntity
  8
NURUS ELEVATION
100
AcDbLine
 10
-5.003636878741872
 20
25.14034929571608
 30
0.0
 11
-6.000065262458974
 21
0.0404591577990914
 31
0.0
  0
ARC
  5
296C4
330
296A1
100
AcDbEntity
  8
NURUS ELEVATION
100
AcDbCircle
 10
-5.50045879041454
 20
0.0206255224048846
 30
0.0
 40
0.500000000001819
100
AcDbArc
 50
177.7266363463043
 51
270.0
  0
LINE
  5
296C5
330
296A1
100
AcDbEntity
  8
NURUS ELEVATION
100
AcDbLine
 10
-5.50045879041454
 20
-0.4793744775952291
 30
0.0
 11
-4.18675256945562
 21
-0.4793744775946607
 31
0.0
  0
LINE
  5
296C6
330
296A1
100
AcDbEntity
  8
NURUS ELEVATION
100
AcDbLine
 10
-1.755158906480573
 20
-0.4793744775950018
 30
0.0
 11
-0.499574406697775
 21
-0.4793744775952291
 31
0.0
  0
LINE
  5
296C7
330
296A1
100
AcDbEntity
  8
NURUS ELEVATION
100
AcDbLine
 10
-3.687160171499272
 20
0.0004404807566516
 30
0.0
 11
-2.035608109554686
 21
40.8773863563041
 31
0.0
  0
ARC
  5
296C8
330
296A1
100
AcDbEntity
  8
NURUS ELEVATION
100
AcDbCircle
 10
-4.18675256945562
 20
0.020625522405453
 30
0.0
 40
0.500000000001819
100
AcDbArc
 50
270.0
 51
357.6863358714666
  0
ARC
  5
296C9
330
296A1
100
AcDbEntity
  8
NURUS ELEVATION
100
AcDbCircle
 10
1.336766635290587
 20
39.7126583937295
 30
0.0
 40
3.567842856192607
100
AcDbArc
 50
143.2701642275364
 51
160.9464578380084
  0
ARC
  5
296CA
330
296A1
100
AcDbEntity
  8
NURUS ELEVATION
100
AcDbCircle
 10
0.6709647524612592
 20
42.69434391920606
 30
0.0
 40
2.351881882696176
100
AcDbArc
 50
152.8816486518909
 51
263.97399888474
  0
LINE
  5
296CB
330
296A1
100
AcDbEntity
  8
NURUS ELEVATION
100
AcDbLine
 10
0.7083485251605453
 20
40.97371576230114
 30
0.0
 11
-0.3283161725344144
 21
38.80145300615834
 31
0.0
  0
LINE
  5
296CC
330
296A1
100
AcDbEntity
  8
NURUS ELEVATION
100
AcDbLine
 10
-0.3283161725344144
 20
38.80145300615834
 30
0.0
 11
-0.5290805672493662
 21
38.23335206682794
 31
0.0
  0
LINE
  5
296CD
330
296A1
100
AcDbEntity
  8
NURUS ELEVATION
100
AcDbLine
 10
-0.5290805672493662
 20
38.23335206682794
 30
0.0
 11
-0.7296683881636455
 21
36.98011689004
 31
0.0
  0
LINE
  5
296CE
330
296A1
100
AcDbEntity
  8
NURUS ELEVATION
100
AcDbLine
 10
-0.7296683881636455
 20
36.98011689004
 30
0.0
 11
-2.254733313177894
 21
0.0412510448095418
 31
0.0
  0
ARC
  5
296CF
330
296A1
100
AcDbEntity
  8
NURUS ELEVATION
100
AcDbCircle
 10
-1.755158906480573
 20
0.020625522405112
 30
0.0
 40
0.500000000001819
100
AcDbArc
 50
177.6358184073898
 51
270.0
  0
LINE
  5
296D0
330
296A1
100
AcDbEntity
  8
NURUS ELEVATION
100
AcDbLine
 10
1.526768023368731
 20
36.98011689004
 30
0.0
 11
-0.0000000000004547
 21
0.0000000000005684
 31
0.0
  0
ARC
  5
296D1
330
296A1
100
AcDbEntity
  8
NURUS ELEVATION
100
AcDbCircle
 10
-0.499574406697775
 20
0.0206255224048846
 30
0.0
 40
0.500000000001819
100
AcDbArc
 50
270.0
 51
357.6358184072597
  0
ARC
  5
296D2
330
296A1
100
AcDbEntity
  8
NURUS ELEVATION
100
AcDbCircle
 10
5.612640813366397
 20
36.17388947190318
 30
0.0
 40
4.164655940867837
100
AcDbArc
 50
105.7665919884967
 51
168.8377496675834
  0
LINE
  5
296D3
330
296A1
100
AcDbEntity
  8
NURUS ELEVATION
100
AcDbLine
 10
4.481024037229872
 20
40.18185685920343
 30
0.0
 11
13.650324171394
 21
40.18185685920343
 31
0.0
  0
ARC
  5
296D4
330
296A1
100
AcDbEntity
  8
NURUS ELEVATION
100
AcDbCircle
 10
20.38311905633236
 20
-9.294489449695447
 30
0.0
 40
49.93234794256583
100
AcDbArc
 50
90.10438744455875
 51
97.74927195366835
  0
ARC
  5
296D5
330
296A1
100
AcDbEntity
  8
NURUS ELEVATION
100
AcDbCircle
 10
19.62633794104749
 20
56.29869719207817
 30
0.0
 40
17.18910360932863
100
AcDbArc
 50
249.655565333193
 51
272.2198715640049
  0
ENDBLK
  5
296A3
330
296A1
100
AcDbEntity
  8
0
100
AcDbBlockEnd
  0
BLOCK
  5
29751
330
29750
100
AcDbEntity
  8
0
100
AcDbBlockBegin
  2
Drop Table_Sq_FRONT
 70
     0
 10
0.0
 20
0.0
 30
0.0
  3
Drop Table_Sq_FRONT
  1

  0
LINE
  5
29753
330
29750
100
AcDbEntity
  8
NURUS ELEVATION
100
AcDbLine
 10
0.0
 20
0.0000000000002274
 30
0.0
 11
0.0000000000013642
 21
71.54797328825714
 31
0.0
  0
LINE
  5
29754
330
29750
100
AcDbEntity
  8
NURUS ELEVATION
100
AcDbLine
 10
-51.75543675810605
 20
-0.0000000000003411
 30
0.0
 11
-48.72112957668651
 21
0.0000000000002274
 31
0.0
  0
LINE
  5
29755
330
29750
100
AcDbEntity
  8
NURUS ELEVATION
100
AcDbLine
 10
-3.635301106539827
 20
0.0000000000002274
 30
0.0
 11
0.0
 21
0.0000000000002274
 31
0.0
  0
LINE
  5
29756
330
29750
100
AcDbEntity
  8
NURUS ELEVATION
100
AcDbLine
 10
-52.25535735511039
 20
0.5089104820311832
 30
0.0
 11
-51.12075965896202
 21
64.16525989183128
 31
0.0
  0
ARC
  5
29757
330
29750
100
AcDbEntity
  8
NURUS ELEVATION
100
AcDbCircle
 10
-51.75543675810605
 20
0.4999999999994316
 30
0.0
 40
0.4999999999998295
100
AcDbArc
 50
178.978879918393
 51
270.0
  0
ARC
  5
29758
330
29750
100
AcDbEntity
  8
NURUS ELEVATION
100
AcDbCircle
 10
-42.04654012861147
 20
63.72321699344161
 30
0.0
 40
9.084980022488366
100
AcDbArc
 50
118.163483405446
 51
177.2110894555344
  0
ARC
  5
29759
330
29750
100
AcDbEntity
  8
NURUS ELEVATION
100
AcDbCircle
 10
-41.49644550815037
 20
62.37625751788016
 30
0.0
 40
10.53318339045359
100
AcDbArc
 50
92.58159801321115
 51
117.3432573291063
  0
LINE
  5
2975A
330
29750
100
AcDbEntity
  8
NURUS ELEVATION
100
AcDbLine
 10
-41.97088264129888
 20
72.89875065133571
 30
0.0
 11
0.0000000000013642
 21
72.89875065133571
 31
0.0
  0
LINE
  5
2975B
330
29750
100
AcDbEntity
  8
NURUS ELEVATION
100
AcDbLine
 10
-34.81964430758808
 20
70.56406196331352
 30
0.0
 11
-8.901437700744736
 21
70.56406196331352
 31
0.0
  0
LINE
  5
2975C
330
29750
100
AcDbEntity
  8
NURUS ELEVATION
100
AcDbLine
 10
-34.81964430758808
 20
70.56406196331352
 30
0.0
 11
-35.70110064738947
 21
69.81430386177908
 31
0.0
  0
ARC
  5
2975D
330
29750
100
AcDbEntity
  8
NURUS ELEVATION
100
AcDbCircle
 10
-37.4250208523913
 20
70.69303096682927
 30
0.0
 40
1.934957931936586
100
AcDbArc
 50
248.7774628766202
 51
332.990874280495
  0
ARC
  5
2975E
330
29750
100
AcDbEntity
  8
NURUS ELEVATION
100
AcDbCircle
 10
-66.77613568959532
 20
182.3276727457535
 30
0.0
 40
117.0005381462588
100
AcDbArc
 50
281.341357369205
 51
284.1745326960676
  0
ARC
  5
2975F
330
29750
100
AcDbEntity
  8
NURUS ELEVATION
100
AcDbCircle
 10
-42.87869727373482
 20
62.95261732560698
 30
0.0
 40
4.74321281657505
100
AcDbArc
 50
100.8003506951057
 51
174.794868795723
  0
LINE
  5
29760
330
29750
100
AcDbEntity
  8
NURUS ELEVATION
100
AcDbLine
 10
-47.60235039876397
 20
63.38292997674023
 30
0.0
 11
-48.22115378030821
 21
0.4950803419851582
 31
0.0
  0
ARC
  5
29761
330
29750
100
AcDbEntity
  8
NURUS ELEVATION
100
AcDbCircle
 10
-48.72112957668651
 20
0.5
 30
0.0
 40
0.4999999999998295
100
AcDbArc
 50
270.0
 51
359.4362396214925
  0
LINE
  5
29762
330
29750
100
AcDbEntity
  8
NURUS ELEVATION
100
AcDbLine
 10
-50.36636896586879
 20
0.0000000000002274
 30
0.0
 11
-49.42264955882501
 21
63.87029439953767
 31
0.0
  0
ARC
  5
29763
330
29750
100
AcDbEntity
  8
NURUS ELEVATION
100
AcDbCircle
 10
-43.94410558049822
 20
63.14629856953286
 30
0.0
 40
5.526175357724704
100
AcDbArc
 50
105.3884367630359
 51
172.4719184833582
  0
LINE
  5
29764
330
29750
100
AcDbEntity
  8
NURUS ELEVATION
100
AcDbLine
 10
-45.41053999292853
 20
68.4743548941567
 30
0.0
 11
-43.56552050282016
 21
69.05475689073762
 31
0.0
  0
LINE
  5
29765
330
29750
100
AcDbEntity
  8
NURUS ELEVATION
100
AcDbLine
 10
-43.56552050282016
 20
69.05475689073762
 30
0.0
 11
-41.0747706772604
 21
69.7392847380363
 31
0.0
  0
LINE
  5
29766
330
29750
100
AcDbEntity
  8
NURUS ELEVATION
100
AcDbLine
 10
-45.35438952898312
 20
71.41110236967108
 30
0.0
 11
-44.48126827085161
 21
70.64764169325804
 31
0.0
  0
ARC
  5
29767
330
29750
100
AcDbEntity
  8
NURUS ELEVATION
100
AcDbCircle
 10
-44.15214305296331
 20
71.02404120302105
 30
0.0
 40
0.4999999999998295
100
AcDbArc
 50
228.8334228121127
 51
270.501700836872
  0
LINE
  5
29768
330
29750
100
AcDbEntity
  8
NURUS ELEVATION
100
AcDbLine
 10
-44.1477649431772
 20
70.52406037123398
 30
0.0
 11
-39.51032693314756
 21
70.56466835347158
 31
0.0
  0
ARC
  5
29769
330
29750
100
AcDbEntity
  8
NURUS ELEVATION
100
AcDbCircle
 10
-3.380324880092302
 20
77.09626925073791
 30
0.0
 40
8.552918731301998
100
AcDbArc
 50
229.7950385084724
 51
258.8293533336909
  0
ARC
  5
2976A
330
29750
100
AcDbEntity
  8
NURUS ELEVATION
100
AcDbCircle
 10
-6.726315716914996
 20
66.10852210241159
 30
0.0
 40
3.097822392349228
100
AcDbArc
 50
356.2008034863688
 51
56.95978269775667
  0
LINE
  5
2976B
330
29750
100
AcDbEntity
  8
NURUS ELEVATION
100
AcDbLine
 10
-3.635301106536644
 20
65.90326067649368
 30
0.0
 11
-3.635301106538463
 21
0.0000000000002274
 31
0.0
  0
ARC
  5
2976C
330
29750
100
AcDbEntity
  8
NURUS ELEVATION
100
AcDbCircle
 10
-7.347955624334645
 20
84.19875135378573
 30
0.0
 40
13.75929341858141
100
AcDbArc
 50
272.5346600739301
 51
290.7974908803483
  0
LINE
  5
2976D
330
29750
100
AcDbEntity
  8
NURUS ELEVATION
100
AcDbLine
 10
-2.462498019819577
 20
71.33599661877259
 30
0.0
 11
-1.083986472359811
 21
71.54797328825691
 31
0.0
  0
LINE
  5
2976E
330
29750
100
AcDbEntity
  8
NURUS ELEVATION
100
AcDbLine
 10
-1.083986472359811
 20
71.54797328825691
 30
0.0
 11
0.0000000000013642
 21
71.54797328825714
 31
0.0
  0
LINE
  5
2976F
330
29750
100
AcDbEntity
  8
NURUS ELEVATION
100
AcDbLine
 10
0.0
 20
0.0000000000002274
 30
0.0
 11
-0.0000000000013642
 21
71.54797328825714
 31
0.0
  0
LINE
  5
29770
330
29750
100
AcDbEntity
  8
NURUS ELEVATION
100
AcDbLine
 10
51.75543675810605
 20
-0.0000000000003411
 30
0.0
 11
48.72112957668651
 21
0.0000000000002274
 31
0.0
  0
LINE
  5
29771
330
29750
100
AcDbEntity
  8
NURUS ELEVATION
100
AcDbLine
 10
3.635301106539827
 20
0.0000000000002274
 30
0.0
 11
0.0
 21
0.0000000000002274
 31
0.0
  0
LINE
  5
29772
330
29750
100
AcDbEntity
  8
NURUS ELEVATION
100
AcDbLine
 10
52.25535735511039
 20
0.5089104820311832
 30
0.0
 11
51.12075965896202
 21
64.16525989183128
 31
0.0
  0
ARC
  5
29773
330
29750
100
AcDbEntity
  8
NURUS ELEVATION
100
AcDbCircle
 10
51.75543675810605
 20
0.4999999999994316
 30
0.0
 40
0.4999999999998295
100
AcDbArc
 50
270.0
 51
1.021120081606956
  0
ARC
  5
29774
330
29750
100
AcDbEntity
  8
NURUS ELEVATION
100
AcDbCircle
 10
42.04654012861147
 20
63.72321699344161
 30
0.0
 40
9.084980022488366
100
AcDbArc
 50
2.788910544596932
 51
61.83651659455395
  0
ARC
  5
29775
330
29750
100
AcDbEntity
  8
NURUS ELEVATION
100
AcDbCircle
 10
41.49644550815037
 20
62.37625751788016
 30
0.0
 40
10.53318339045359
100
AcDbArc
 50
62.6567426720356
 51
87.41840198678884
  0
LINE
  5
29776
330
29750
100
AcDbEntity
  8
NURUS ELEVATION
100
AcDbLine
 10
41.97088264129888
 20
72.89875065133571
 30
0.0
 11
-0.0000000000013642
 21
72.89875065133571
 31
0.0
  0
LINE
  5
29777
330
29750
100
AcDbEntity
  8
NURUS ELEVATION
100
AcDbLine
 10
34.81964430758808
 20
70.56406196331352
 30
0.0
 11
8.901437700744736
 21
70.56406196331352
 31
0.0
  0
LINE
  5
29778
330
29750
100
AcDbEntity
  8
NURUS ELEVATION
100
AcDbLine
 10
34.81964430758808
 20
70.56406196331352
 30
0.0
 11
35.70110064738947
 21
69.81430386177908
 31
0.0
  0
ARC
  5
29779
330
29750
100
AcDbEntity
  8
NURUS ELEVATION
100
AcDbCircle
 10
37.4250208523913
 20
70.69303096682927
 30
0.0
 40
1.934957931936586
100
AcDbArc
 50
207.009125719505
 51
291.2225371233799
  0
ARC
  5
2977A
330
29750
100
AcDbEntity
  8
NURUS ELEVATION
100
AcDbCircle
 10
66.77613568959532
 20
182.3276727457535
 30
0.0
 40
117.0005381462588
100
AcDbArc
 50
255.8254673047381
 51
258.6586426315922
  0
ARC
  5
2977B
330
29750
100
AcDbEntity
  8
NURUS ELEVATION
100
AcDbCircle
 10
42.87869727373482
 20
62.95261732560698
 30
0.0
 40
4.74321281657505
100
AcDbArc
 50
5.205131204341876
 51
79.1996493056901
  0
LINE
  5
2977C
330
29750
100
AcDbEntity
  8
NURUS ELEVATION
100
AcDbLine
 10
47.60235039876397
 20
63.38292997674023
 30
0.0
 11
48.22115378030821
 21
0.4950803419851582
 31
0.0
  0
ARC
  5
2977D
330
29750
100
AcDbEntity
  8
NURUS ELEVATION
100
AcDbCircle
 10
48.72112957668651
 20
0.5
 30
0.0
 40
0.4999999999998295
100
AcDbArc
 50
180.5637603785076
 51
270.0
  0
LINE
  5
2977E
330
29750
100
AcDbEntity
  8
NURUS ELEVATION
100
AcDbLine
 10
50.36636896586879
 20
0.0000000000002274
 30
0.0
 11
49.42264955882501
 21
63.87029439953767
 31
0.0
  0
ARC
  5
2977F
330
29750
100
AcDbEntity
  8
NURUS ELEVATION
100
AcDbCircle
 10
43.94410558049822
 20
63.14629856953286
 30
0.0
 40
5.526175357724704
100
AcDbArc
 50
7.528081516641777
 51
74.61156323777474
  0
LINE
  5
29780
330
29750
100
AcDbEntity
  8
NURUS ELEVATION
100
AcDbLine
 10
45.41053999292853
 20
68.4743548941567
 30
0.0
 11
43.56552050282016
 21
69.05475689073762
 31
0.0
  0
LINE
  5
29781
330
29750
100
AcDbEntity
  8
NURUS ELEVATION
100
AcDbLine
 10
43.56552050282016
 20
69.05475689073762
 30
0.0
 11
41.0747706772604
 21
69.7392847380363
 31
0.0
  0
LINE
  5
29782
330
29750
100
AcDbEntity
  8
NURUS ELEVATION
100
AcDbLine
 10
45.35438952898312
 20
71.41110236967108
 30
0.0
 11
44.48126827085161
 21
70.64764169325804
 31
0.0
  0
ARC
  5
29783
330
29750
100
AcDbEntity
  8
NURUS ELEVATION
100
AcDbCircle
 10
44.15214305296331
 20
71.02404120302105
 30
0.0
 40
0.4999999999998295
100
AcDbArc
 50
269.4982991620858
 51
311.1665771879438
  0
LINE
  5
29784
330
29750
100
AcDbEntity
  8
NURUS ELEVATION
100
AcDbLine
 10
44.1477649431772
 20
70.52406037123398
 30
0.0
 11
39.51032693314756
 21
70.56466835347158
 31
0.0
  0
ARC
  5
29785
330
29750
100
AcDbEntity
  8
NURUS ELEVATION
100
AcDbCircle
 10
3.380324880092302
 20
77.09626925073791
 30
0.0
 40
8.552918731301998
100
AcDbArc
 50
281.1706466671062
 51
310.204961492415
  0
ARC
  5
29786
330
29750
100
AcDbEntity
  8
NURUS ELEVATION
100
AcDbCircle
 10
6.726315716914996
 20
66.10852210241159
 30
0.0
 40
3.097822392349228
100
AcDbArc
 50
123.0402173022108
 51
183.7991965136312
  0
LINE
  5
29787
330
29750
100
AcDbEntity
  8
NURUS ELEVATION
100
AcDbLine
 10
3.635301106536644
 20
65.90326067649368
 30
0.0
 11
3.635301106538463
 21
0.0000000000002274
 31
0.0
  0
ARC
  5
29788
330
29750
100
AcDbEntity
  8
NURUS ELEVATION
100
AcDbCircle
 10
7.347955624334645
 20
84.19875135378573
 30
0.0
 40
13.75929341858141
100
AcDbArc
 50
249.2025091204888
 51
267.4653399268525
  0
LINE
  5
29789
330
29750
100
AcDbEntity
  8
NURUS ELEVATION
100
AcDbLine
 10
2.462498019819577
 20
71.33599661877259
 30
0.0
 11
1.083986472359811
 21
71.54797328825691
 31
0.0
  0
LINE
  5
2978A
330
29750
100
AcDbEntity
  8
NURUS ELEVATION
100
AcDbLine
 10
1.083986472359811
 20
71.54797328825691
 30
0.0
 11
-0.0000000000013642
 21
71.54797328825714
 31
0.0
  0
ENDBLK
  5
29752
330
29750
100
AcDbEntity
  8
0
100
AcDbBlockEnd
  0
BLOCK
  5
297FD
330
297FC
100
AcDbEntity
  8
0
100
AcDbBlockBegin
  2
Drop Table_Rnd_FRONT
 70
     0
 10
0.0
 20
0.0
 30
0.0
  3
Drop Table_Rnd_FRONT
  1

  0
LINE
  5
297FF
330
297FC
100
AcDbEntity
  8
NURUS ELEVATION
100
AcDbLine
 10
-38.65769455165764
 20
-0.0000000000005684
 30
0.0
 11
-35.62338737023811
 21
0.0
 31
0.0
  0
LINE
  5
29800
330
297FC
100
AcDbEntity
  8
NURUS ELEVATION
100
AcDbLine
 10
-1.567650553269686
 20
0.0
 30
0.0
 11
1.567650553270141
 21
0.0
 31
0.0
  0
LINE
  5
29801
330
297FC
100
AcDbEntity
  8
NURUS ELEVATION
100
AcDbLine
 10
-39.15761514866199
 20
0.5089104820309558
 30
0.0
 11
-38.02301745251361
 21
64.16525989183106
 31
0.0
  0
ARC
  5
29802
330
297FC
100
AcDbEntity
  8
NURUS ELEVATION
100
AcDbCircle
 10
-38.65769455165764
 20
0.4999999999992042
 30
0.0
 40
0.4999999999998295
100
AcDbArc
 50
178.978879918393
 51
270.0
  0
ARC
  5
29803
330
297FC
100
AcDbEntity
  8
NURUS ELEVATION
100
AcDbCircle
 10
-28.94879792216307
 20
63.72321699344138
 30
0.0
 40
9.084980022488366
100
AcDbArc
 50
118.163483405446
 51
177.2110894555344
  0
ARC
  5
29804
330
297FC
100
AcDbEntity
  8
NURUS ELEVATION
100
AcDbCircle
 10
-28.39870330170197
 20
62.37625751787994
 30
0.0
 40
10.53318339045359
100
AcDbArc
 50
92.58159801321115
 51
117.3432573291063
  0
LINE
  5
29805
330
297FC
100
AcDbEntity
  8
NURUS ELEVATION
100
AcDbLine
 10
-28.87314043485048
 20
72.89875065133549
 30
0.0
 11
1.567650553271505
 21
72.89875065133549
 31
0.0
  0
LINE
  5
29806
330
297FC
100
AcDbEntity
  8
NURUS ELEVATION
100
AcDbLine
 10
-21.72190210113968
 20
70.56406196331329
 30
0.0
 11
-7.333787147474595
 21
70.56406196331329
 31
0.0
  0
LINE
  5
29807
330
297FC
100
AcDbEntity
  8
NURUS ELEVATION
100
AcDbLine
 10
-21.72190210113968
 20
70.56406196331329
 30
0.0
 11
-22.60335844094107
 21
69.81430386177885
 31
0.0
  0
ARC
  5
29808
330
297FC
100
AcDbEntity
  8
NURUS ELEVATION
100
AcDbCircle
 10
-24.3272786459429
 20
70.69303096682915
 30
0.0
 40
1.934957931936586
100
AcDbArc
 50
248.7774628766202
 51
332.990874280495
  0
ARC
  5
29809
330
297FC
100
AcDbEntity
  8
NURUS ELEVATION
100
AcDbCircle
 10
-53.67839348314692
 20
182.3276727457532
 30
0.0
 40
117.0005381462588
100
AcDbArc
 50
281.341357369205
 51
284.1745326960676
  0
ARC
  5
2980A
330
297FC
100
AcDbEntity
  8
NURUS ELEVATION
100
AcDbCircle
 10
-29.78095506728641
 20
62.95261732560675
 30
0.0
 40
4.74321281657505
100
AcDbArc
 50
100.8003506951057
 51
174.794868795723
  0
LINE
  5
2980B
330
297FC
100
AcDbEntity
  8
NURUS ELEVATION
100
AcDbLine
 10
-34.50460819231557
 20
63.38292997674
 30
0.0
 11
-35.12341157385981
 21
0.4950803419849308
 31
0.0
  0
ARC
  5
2980C
330
297FC
100
AcDbEntity
  8
NURUS ELEVATION
100
AcDbCircle
 10
-35.62338737023811
 20
0.4999999999997727
 30
0.0
 40
0.4999999999998295
100
AcDbArc
 50
270.0
 51
359.4362396214925
  0
LINE
  5
2980D
330
297FC
100
AcDbEntity
  8
NURUS ELEVATION
100
AcDbLine
 10
-32.25664732253472
 20
71.41110236967086
 30
0.0
 11
-31.38352606440321
 21
70.64764169325781
 31
0.0
  0
ARC
  5
2980E
330
297FC
100
AcDbEntity
  8
NURUS ELEVATION
100
AcDbCircle
 10
-31.05440084651491
 20
71.02404120302082
 30
0.0
 40
0.4999999999998295
100
AcDbArc
 50
228.8334228121127
 51
270.501700836872
  0
LINE
  5
2980F
330
297FC
100
AcDbEntity
  8
NURUS ELEVATION
100
AcDbLine
 10
-31.05002273672881
 20
70.52406037123375
 30
0.0
 11
-26.41258472669915
 21
70.56466835347134
 31
0.0
  0
ARC
  5
29810
330
297FC
100
AcDbEntity
  8
NURUS ELEVATION
100
AcDbCircle
 10
-1.812674326822161
 20
77.09626925073781
 30
0.0
 40
8.552918731301998
100
AcDbArc
 50
229.7950385084724
 51
258.8293533336909
  0
ARC
  5
29811
330
297FC
100
AcDbEntity
  8
NURUS ELEVATION
100
AcDbCircle
 10
-5.158665163644855
 20
66.10852210241137
 30
0.0
 40
3.097822392349228
100
AcDbArc
 50
356.2008034863688
 51
56.95978269775667
  0
LINE
  5
29812
330
297FC
100
AcDbEntity
  8
NURUS ELEVATION
100
AcDbLine
 10
-2.067650553266503
 20
65.90326067649357
 30
0.0
 11
-2.067650553269686
 21
0.4999999999997727
 31
0.0
  0
ARC
  5
29813
330
297FC
100
AcDbEntity
  8
NURUS ELEVATION
100
AcDbCircle
 10
-1.567650553269686
 20
0.4999999999997727
 30
0.0
 40
0.4999999999998295
100
AcDbArc
 50
180.0
 51
270.0
  0
ARC
  5
29814
330
297FC
100
AcDbEntity
  8
NURUS ELEVATION
100
AcDbCircle
 10
-5.780305071064503
 20
84.1987513537855
 30
0.0
 40
13.75929341858141
100
AcDbArc
 50
272.5346600739301
 51
290.7974908803483
  0
LINE
  5
29815
330
297FC
100
AcDbEntity
  8
NURUS ELEVATION
100
AcDbLine
 10
-0.8948474665494359
 20
71.33599661877235
 30
0.0
 11
0.4836640809103301
 21
71.54797328825669
 31
0.0
  0
LINE
  5
29816
330
297FC
100
AcDbEntity
  8
NURUS ELEVATION
100
AcDbLine
 10
0.4836640809103301
 20
71.54797328825669
 30
0.0
 11
1.567650553271505
 21
71.54797328825691
 31
0.0
  0
LINE
  5
29817
330
297FC
100
AcDbEntity
  8
NURUS ELEVATION
100
AcDbLine
 10
41.79299565819792
 20
-0.0000000000005684
 30
0.0
 11
38.75868847677839
 21
0.0
 31
0.0
  0
LINE
  5
29818
330
297FC
100
AcDbEntity
  8
NURUS ELEVATION
100
AcDbLine
 10
4.702951659809968
 20
0.0
 30
0.0
 11
1.567650553270141
 21
0.0
 31
0.0
  0
LINE
  5
29819
330
297FC
100
AcDbEntity
  8
NURUS ELEVATION
100
AcDbLine
 10
42.29291625520227
 20
0.5089104820309558
 30
0.0
 11
41.15831855905435
 21
64.16525989183106
 31
0.0
  0
ARC
  5
2981A
330
297FC
100
AcDbEntity
  8
NURUS ELEVATION
100
AcDbCircle
 10
41.79299565819792
 20
0.4999999999992042
 30
0.0
 40
0.4999999999998295
100
AcDbArc
 50
270.0
 51
1.021120081606956
  0
ARC
  5
2981B
330
297FC
100
AcDbEntity
  8
NURUS ELEVATION
100
AcDbCircle
 10
32.08409902870335
 20
63.72321699344138
 30
0.0
 40
9.084980022488366
100
AcDbArc
 50
2.788910544596932
 51
61.83651659455395
  0
ARC
  5
2981C
330
297FC
100
AcDbEntity
  8
NURUS ELEVATION
100
AcDbCircle
 10
31.53400440824225
 20
62.37625751787994
 30
0.0
 40
10.53318339045359
100
AcDbArc
 50
62.6567426720356
 51
87.41840198678884
  0
LINE
  5
2981D
330
297FC
100
AcDbEntity
  8
NURUS ELEVATION
100
AcDbLine
 10
32.00844154139077
 20
72.89875065133549
 30
0.0
 11
1.567650553268777
 21
72.89875065133549
 31
0.0
  0
LINE
  5
2981E
330
297FC
100
AcDbEntity
  8
NURUS ELEVATION
100
AcDbLine
 10
24.85720320767996
 20
70.56406196331329
 30
0.0
 11
10.46908825401487
 21
70.56406196331329
 31
0.0
  0
LINE
  5
2981F
330
297FC
100
AcDbEntity
  8
NURUS ELEVATION
100
AcDbLine
 10
24.85720320767996
 20
70.56406196331329
 30
0.0
 11
25.73865954748135
 21
69.81430386177885
 31
0.0
  0
ARC
  5
29820
330
297FC
100
AcDbEntity
  8
NURUS ELEVATION
100
AcDbCircle
 10
27.46257975248318
 20
70.69303096682915
 30
0.0
 40
1.934957931936586
100
AcDbArc
 50
207.009125719505
 51
291.2225371233799
  0
ARC
  5
29821
330
297FC
100
AcDbEntity
  8
NURUS ELEVATION
100
AcDbCircle
 10
56.8136945896872
 20
182.3276727457532
 30
0.0
 40
117.0005381462588
100
AcDbArc
 50
255.8254673047381
 51
258.6586426315922
  0
ARC
  5
29822
330
297FC
100
AcDbEntity
  8
NURUS ELEVATION
100
AcDbCircle
 10
32.9162561738267
 20
62.95261732560675
 30
0.0
 40
4.74321281657505
100
AcDbArc
 50
5.205131204341876
 51
79.1996493056901
  0
LINE
  5
29823
330
297FC
100
AcDbEntity
  8
NURUS ELEVATION
100
AcDbLine
 10
37.63990929885586
 20
63.38292997674
 30
0.0
 11
38.25871268040009
 21
0.4950803419849308
 31
0.0
  0
ARC
  5
29824
330
297FC
100
AcDbEntity
  8
NURUS ELEVATION
100
AcDbCircle
 10
38.75868847677839
 20
0.4999999999997727
 30
0.0
 40
0.4999999999998295
100
AcDbArc
 50
180.5637603785076
 51
270.0
  0
LINE
  5
29825
330
297FC
100
AcDbEntity
  8
NURUS ELEVATION
100
AcDbLine
 10
35.391948429075
 20
71.41110236967086
 30
0.0
 11
34.5188271709435
 21
70.64764169325781
 31
0.0
  0
ARC
  5
29826
330
297FC
100
AcDbEntity
  8
NURUS ELEVATION
100
AcDbCircle
 10
34.18970195305519
 20
71.02404120302082
 30
0.0
 40
0.4999999999998295
100
AcDbArc
 50
269.4982991620858
 51
311.1665771879438
  0
LINE
  5
29827
330
297FC
100
AcDbEntity
  8
NURUS ELEVATION
100
AcDbLine
 10
34.18532384326909
 20
70.52406037123375
 30
0.0
 11
29.54788583323944
 21
70.56466835347134
 31
0.0
  0
ARC
  5
29828
330
297FC
100
AcDbEntity
  8
NURUS ELEVATION
100
AcDbCircle
 10
4.947975433362444
 20
77.09626925073781
 30
0.0
 40
8.552918731301998
100
AcDbArc
 50
281.1706466671062
 51
310.204961492415
  0
ARC
  5
29829
330
297FC
100
AcDbEntity
  8
NURUS ELEVATION
100
AcDbCircle
 10
8.293966270185137
 20
66.10852210241137
 30
0.0
 40
3.097822392349228
100
AcDbArc
 50
123.0402173022108
 51
183.7991965136312
  0
LINE
  5
2982A
330
297FC
100
AcDbEntity
  8
NURUS ELEVATION
100
AcDbLine
 10
5.20295165980724
 20
65.90326067649357
 30
0.0
 11
5.202951659809968
 21
0.4999999999997727
 31
0.0
  0
ARC
  5
2982B
330
297FC
100
AcDbEntity
  8
NURUS ELEVATION
100
AcDbCircle
 10
4.702951659809968
 20
0.4999999999997727
 30
0.0
 40
0.4999999999998295
100
AcDbArc
 50
270.0
 51
0.0
  0
ARC
  5
2982C
330
297FC
100
AcDbEntity
  8
NURUS ELEVATION
100
AcDbCircle
 10
8.915606177604786
 20
84.1987513537855
 30
0.0
 40
13.75929341858141
100
AcDbArc
 50
249.2025091204888
 51
267.4653399268525
  0
LINE
  5
2982D
330
297FC
100
AcDbEntity
  8
NURUS ELEVATION
100
AcDbLine
 10
4.030148573089718
 20
71.33599661877235
 30
0.0
 11
2.651637025629952
 21
71.54797328825669
 31
0.0
  0
LINE
  5
2982E
330
297FC
100
AcDbEntity
  8
NURUS ELEVATION
100
AcDbLine
 10
2.651637025629952
 20
71.54797328825669
 30
0.0
 11
1.567650553268777
 21
71.54797328825691
 31
0.0
  0
LINE
  5
2982F
330
297FC
100
AcDbEntity
  8
NURUS ELEVATION
100
AcDbLine
 10
-2.067650553266503
 20
63.49831735874921
 30
0.0
 11
5.20295165980724
 21
63.49831735874954
 31
0.0
  0
LINE
  5
29830
330
297FC
100
AcDbEntity
  8
NURUS ELEVATION
100
AcDbLine
 10
-38.03483910221894
 20
63.50200888507515
 30
0.0
 11
-34.50460819231557
 21
63.3829299767359
 31
0.0
  0
LINE
  5
29831
330
297FC
100
AcDbEntity
  8
NURUS ELEVATION
100
AcDbLine
 10
37.63990929885586
 20
63.38292997674409
 30
0.0
 11
41.17114081810586
 21
63.44586992198856
 31
0.0
  0
ENDBLK
  5
297FE
330
297FC
100
AcDbEntity
  8
0
100
AcDbBlockEnd
  0
ENDSEC
  0
SECTION
  2
ENTITIES
  0
MTEXT
  5
83D
330
1F
100
AcDbEntity
  8
NURUS TEXT
  6
Continuous
 62
     0
370
     0
100
AcDbMText
 10
2741.927125015345
 20
1064.498502944117
 30
0.0
 40
8.0
 41
0.0
 46
0.0
 71
     1
 72
     1
  1
{\fCentury Gothic|b0|i0|c162|p34;DROP }
  7
ARIAL
 73
     1
 44
1.0
  0
MTEXT
  5
83F
330
1F
100
AcDbEntity
  8
NURUS TEXT
  6
Continuous
 62
     0
370
     0
100
AcDbMText
 10
2741.927125015345
 20
1052.150562762288
 30
0.0
 40
8.0
 41
0.0
 46
0.0
 71
     1
 72
     1
  1
{\fCentury Gothic|b0|i0|c162|p34;PLAN VIEW}
  7
ARIAL
 73
     1
 44
1.0
  0
MTEXT
  5
E299
330
1F
100
AcDbEntity
  8
NURUS TEXT
  6
Continuous
 62
     0
370
     0
100
AcDbMText
 10
3119.650283823346
 20
1052.150562762288
 30
0.0
 40
8.0
 41
0.0
 46
0.0
 71
     1
 72
     1
  1
{\fCentury Gothic|b0|i0|c162|p34;DETAIL VIEW}
  7
ARIAL
 73
     1
 44
1.0
  0
MTEXT
  5
F6A7
330
1F
100
AcDbEntity
  8
NURUS CODE
100
AcDbMText
 10
2745.66584046501
 20
1009.128775881157
 30
0.0
 40
4.0
 41
101.3862776319331
 46
9.864634466588714
 71
     1
 72
     5
  1
{\fCentury Gothic|b0|i0|c162|p34;Drop Chair}
 73
     1
 44
1.0
1001
AcDbBlockRepETag
1070
     1
1071
       90
1005
0
1001
ACAD
1000
ACAD_MTEXT_DEFINED_HEIGHT_BEGIN
1070
    46
1040
9.864634466588714
1000
ACAD_MTEXT_DEFINED_HEIGHT_END
  0
LINE
  5
F8D1
330
1F
100
AcDbEntity
  8
0
100
AcDbLine
 10
3088.918382010575
 20
929.2742684222025
 30
0.0
 11
3341.267707394262
 21
929.2742684222021
 31
0.0
  0
MTEXT
  5
290B1
330
1F
100
AcDbEntity
  8
NURUS TEXT
  6
Continuous
 62
     0
370
     0
100
AcDbMText
 10
3119.629301332556
 20
1064.498502944117
 30
0.0
 40
8.0
 41
0.0
 46
0.0
 71
     1
 72
     1
  1
{\fCentury Gothic|b0|i0|c162|p34;DROP }
  7
ARIAL
 73
     1
 44
1.0
  0
MTEXT
  5
29438
330
1F
100
AcDbEntity
  8
NURUS CODE
100
AcDbMText
 10
3125.183155729964
 20
919.4084292138457
 30
0.0
 40
4.0
 41
101.3862776319331
 46
9.864634466588714
 71
     1
 72
     5
  1
{\fCentury Gothic|b0|i0|c162|p34;Drop Chair}
 73
     1
 44
1.0
1001
AcDbBlockRepETag
1070
     1
1071
       90
1005
0
1001
ACAD
1000
ACAD_MTEXT_DEFINED_HEIGHT_BEGIN
1070
    46
1040
9.864634466588714
1000
ACAD_MTEXT_DEFINED_HEIGHT_END
  0
INSERT
  5
29587
330
1F
100
AcDbEntity
  8
NURUS FURNITURE
100
AcDbBlockReference
  2
Drop Kare Masa
 10
2878.016806140137
 20
989.8465763811065
 30
0.0
  0
INSERT
  5
29593
330
1F
100
AcDbEntity
  8
NURUS FURNITURE
100
AcDbBlockReference
  2
Drop Sandalye
 10
2770.03895437266
 20
980.8961904433877
 30
0.0
  0
INSERT
  5
295A3
330
1F
100
AcDbEntity
  8
NURUS FURNITURE
100
AcDbBlockReference
  2
Drop Yuvarlak Masa
 10
2985.745495189574
 20
953.9640444795791
 30
0.0
  0
MTEXT
  5
295A4
330
1F
100
AcDbEntity
  8
NURUS CODE
100
AcDbMText
 10
2841.759851398961
 20
1009.128775881157
 30
0.0
 40
4.0
 41
101.3862776319331
 46
9.864634466588714
 71
     1
 72
     5
  1
{\fCentury Gothic|b0|i0|c162|p34;Drop Table_Sq}
 73
     1
 44
1.0
1001
AcDbBlockRepETag
1070
     1
1071
       90
1005
0
1001
ACAD
1000
ACAD_MTEXT_DEFINED_HEIGHT_BEGIN
1070
    46
1040
9.864634466588714
1000
ACAD_MTEXT_DEFINED_HEIGHT_END
  0
MTEXT
  5
295A5
330
1F
100
AcDbEntity
  8
NURUS CODE
100
AcDbMText
 10
2955.534110853043
 20
1009.128775881157
 30
0.0
 40
4.0
 41
101.3862776319331
 46
9.864634466588714
 71
     1
 72
     5
  1
{\fCentury Gothic|b0|i0|c162|p34;Drop Table_Rnd}
 73
     1
 44
1.0
1001
AcDbBlockRepETag
1070
     1
1071
       90
1005
0
1001
ACAD
1000
ACAD_MTEXT_DEFINED_HEIGHT_BEGIN
1070
    46
1040
9.864634466588714
1000
ACAD_MTEXT_DEFINED_HEIGHT_END
  0
INSERT
  5
296A0
330
1F
100
AcDbEntity
  8
NURUS ELEVATION
100
AcDbBlockReference
  2
Drop Chair_SIDE
 10
3128.319797748547
 20
929.7229392500829
 30
0.0
  0
INSERT
  5
296D6
330
1F
100
AcDbEntity
  8
NURUS ELEVATION
100
AcDbBlockReference
  2
Drop_FRONT
 10
3216.671794142567
 20
929.7536428997972
 30
0.0
  0
LINE
  5
29715
330
1F
100
AcDbEntity
  8
0
100
AcDbLine
 10
3088.918382010575
 20
800.2484028042593
 30
0.0
 11
3341.267707394262
 21
800.2484028042591
 31
0.0
  0
MTEXT
  5
29717
330
1F
100
AcDbEntity
  8
NURUS CODE
100
AcDbMText
 10
3120.73035383973
 20
790.6801916644423
 30
0.0
 40
4.0
 41
101.3862776319331
 46
9.864634466588714
 71
     1
 72
     5
  1
{\fCentury Gothic|b0|i0|c162|p34;Drop Table_Sq}
 73
     1
 44
1.0
1001
AcDbBlockRepETag
1070
     1
1071
       90
1005
0
1001
ACAD
1000
ACAD_MTEXT_DEFINED_HEIGHT_BEGIN
1070
    46
1040
9.864634466588714
1000
ACAD_MTEXT_DEFINED_HEIGHT_END
  0
INSERT
  5
2978B
330
1F
100
AcDbEntity
  8
NURUS ELEVATION
100
AcDbBlockReference
  2
Drop Table_Sq_FRONT
 10
3172.101745403431
 20
800.2484028042591
 30
0.0
  0
LINE
  5
297C6
330
1F
100
AcDbEntity
  8
0
100
AcDbLine
 10
3088.918382010575
 20
672.1093889986477
 30
0.0
 11
3341.267707394262
 21
672.1093889986474
 31
0.0
  0
MTEXT
  5
297C7
330
1F
100
AcDbEntity
  8
NURUS CODE
100
AcDbMText
 10
3120.814579984664
 20
655.7357039554458
 30
0.0
 40
4.0
 41
101.3862776319331
 46
9.864634466588714
 71
     1
 72
     5
  1
{\fCentury Gothic|b0|i0|c162|p34;Drop Table_Rnd}
 73
     1
 44
1.0
1001
AcDbBlockRepETag
1070
     1
1071
       90
1005
0
1001
ACAD
1000
ACAD_MTEXT_DEFINED_HEIGHT_BEGIN
1070
    46
1040
9.864634466588714
1000
ACAD_MTEXT_DEFINED_HEIGHT_END
  0
INSERT
  5
29832
330
1F
100
AcDbEntity
  8
NURUS ELEVATION
100
AcDbBlockReference
  2
Drop Table_Rnd_FRONT
 10
3158.873685263432
 20
672.1093889986478
 30
0.0
  0
ENDSEC
  0
SECTION
  2
OBJECTS
  0
DICTIONARY
  5
C
330
0
100
AcDbDictionary
281
     1
  3
ACAD_CIP_PREVIOUS_PRODUCT_INFO
350
F64C
  3
ACAD_COLOR
350
6B
  3
ACAD_DETAILVIEWSTYLE
350
F646
  3
ACAD_GROUP
350
D
  3
ACAD_IMAGE_DICT
350
295A6
  3
ACAD_IMAGE_VARS
350
295A7
  3
ACAD_LAYOUT
350
1A
  3
ACAD_MATERIAL
350
6A
  3
ACAD_MLEADERSTYLE
350
F642
  3
ACAD_MLINESTYLE
350
17
  3
ACAD_PLOTSETTINGS
350
19
  3
ACAD_PLOTSTYLENAME
350
E
  3
ACAD_SCALELIST
350
F630
  3
ACAD_SECTIONVIEWSTYLE
350
F644
  3
ACAD_TABLESTYLE
350
7E
  3
ACAD_VISUALSTYLE
350
EF
  3
ACDB_RECOMPOSE_DATA
350
165C4
  3
AcDbVariableDictionary
350
5E
  3
AcDsDecomposeData
350
165CA
  0
DICTIONARY
  5
742
330
2
100
AcDbDictionary
280
     1
281
     1
  3
ACAD_LAYERFILTERS
360
82F
  3
ACAD_LAYERSTATES
360
743
  3
ACLYDICTIONARY
360
82E
  0
DICTIONARY
  5
10211
330
10
100
AcDbDictionary
280
     1
281
     1
  3
ADSK_XREC_LAYER_RECONCILED
360
10212
  0
DICTIONARY
  5
10213
330
73C
100
AcDbDictionary
280
     1
281
     1
  3
ADSK_XREC_LAYER_RECONCILED
360
10214
  0
DICTIONARY
  5
10215
330
F9D9
100
AcDbDictionary
280
     1
281
     1
  3
ADSK_XREC_LAYER_RECONCILED
360
10216
  0
DICTIONARY
  5
10219
330
F9DC
100
AcDbDictionary
280
     1
281
     1
  3
ADSK_XREC_LAYER_RECONCILED
360
1021A
  0
DICTIONARY
  5
1021B
330
F9DD
100
AcDbDictionary
280
     1
281
     1
  3
ADSK_XREC_LAYER_RECONCILED
360
1021C
  0
DICTIONARY
  5
B106
330
1F
100
AcDbDictionary
280
     1
281
     1
  3
ACAD_SORTENTS
360
B107
  0
DICTIONARY
  5
29583
330
2957A
100
AcDbDictionary
280
     1
281
     1
  3
ACAD_SORTENTS
360
29584
  0
DICTIONARY
  5
2958F
330
29588
100
AcDbDictionary
280
     1
281
     1
  3
ACAD_SORTENTS
360
29590
  0
DICTIONARY
  5
2959F
330
29594
100
AcDbDictionary
280
     1
281
     1
  3
ACAD_SORTENTS
360
295A0
  0
XRECORD
  5
F64C
102
{ACAD_REACTORS
330
C
102
}
330
C
100
AcDbXrecord
280
     1
300
ACD
300
2015
300
DSSTD_F_S
  0
DICTIONARY
  5
6B
102
{ACAD_REACTORS
330
C
102
}
330
C
100
AcDbDictionary
281
     1
  0
DICTIONARY
  5
F646
102
{ACAD_REACTORS
330
C
102
}
330
C
100
AcDbDictionary
281
     1
  3
Metric50
350
F647
  0
DICTIONARY
  5
D
102
{ACAD_REACTORS
330
C
102
}
330
C
100
AcDbDictionary
281
     1
  0
DICTIONARY
  5
295A6
102
{ACAD_REACTORS
330
C
102
}
330
C
100
AcDbDictionary
281
     1
  3
Picture7
350
295A8
  0
RASTERVARIABLES
  5
295A7
102
{ACAD_REACTORS
330
C
102
}
330
C
100
AcDbRasterVariables
 90
        0
 70
     1
 71
     1
 72
     2
  0
DICTIONARY
  5
1A
102
{ACAD_REACTORS
330
C
102
}
330
C
100
AcDbDictionary
281
     1
  3
Layout1
350
D3
  3
Layout2
350
D7
  3
Model
350
22
  0
DICTIONARY
  5
6A
102
{ACAD_REACTORS
330
C
102
}
330
C
100
AcDbDictionary
281
     1
  3
ByBlock
350
ED
  3
ByLayer
350
EC
  3
Global
350
EE
  0
DICTIONARY
  5
F642
102
{ACAD_REACTORS
330
C
102
}
330
C
100
AcDbDictionary
281
     1
  3
Standard
350
F643
  0
DICTIONARY
  5
17
102
{ACAD_REACTORS
330
C
102
}
330
C
100
AcDbDictionary
281
     1
  3
Standard
350
18
  0
DICTIONARY
  5
19
102
{ACAD_REACTORS
330
C
102
}
330
C
100
AcDbDictionary
281
     1
  0
ACDBDICTIONARYWDFLT
  5
E
102
{ACAD_REACTORS
330
C
102
}
330
C
100
AcDbDictionary
281
     1
  3
Normal
350
F
100
AcDbDictionaryWithDefault
340
F
  0
DICTIONARY
  5
F630
102
{ACAD_REACTORS
330
C
102
}
330
C
100
AcDbDictionary
281
     1
  3
A0
350
F631
  3
A1
350
F632
  3
A2
350
F633
  3
A3
350
F634
  3
A4
350
F635
  3
A5
350
F636
  3
A6
350
F637
  3
A7
350
F638
  3
A8
350
F639
  3
A9
350
F63A
  3
B0
350
F63B
  3
B1
350
F63C
  3
B2
350
F63D
  3
B3
350
F63E
  3
B4
350
F63F
  3
B5
350
F640
  3
B6
350
F641
  0
DICTIONARY
  5
F644
102
{ACAD_REACTORS
330
C
102
}
330
C
100
AcDbDictionary
281
     1
  3
Metric50
350
F645
  0
DICTIONARY
  5
7E
102
{ACAD_REACTORS
330
C
102
}
330
C
100
AcDbDictionary
281
     1
  3
Standard
350
7F
  0
DICTIONARY
  5
EF
102
{ACAD_REACTORS
330
C
102
}
330
C
100
AcDbDictionary
281
     1
  3
2dWireframe
350
F5
  3
3D Hidden
350
F7
  3
3dWireframe
350
F6
  3
Basic
350
F4
  3
Brighten
350
FB
  3
ColorChange
350
FF
  3
Conceptual
350
F8
  3
Dim
350
FA
  3
EdgeColorOff
350
F62F
  3
Facepattern
350
FE
  3
Flat
350
F0
  3
FlatWithEdges
350
F1
  3
Gouraud
350
F2
  3
GouraudWithEdges
350
F3
  3
Hidden
350
F627
  3
JitterOff
350
F62D
  3
Linepattern
350
FD
  3
OverhangOff
350
F62E
  3
Realistic
350
F9
  3
Shaded
350
F62C
  3
Shaded with edges
350
F62B
  3
Shades of Gray
350
F628
  3
Sketchy
350
F629
  3
Thicken
350
FC
  3
Wireframe
350
F626
  3
X-Ray
350
F62A
  0
XRECORD
  5
165C4
102
{ACAD_REACTORS
330
C
102
}
330
C
100
AcDbXrecord
280
     1
 90
        1
330
7F
  0
DICTIONARY
  5
5E
102
{ACAD_REACTORS
330
C
102
}
330
C
100
AcDbDictionary
281
     1
  3
CANNOSCALE
350
1031E
  3
CMLEADERSTYLE
350
1031A
  3
CTABLESTYLE
350
84
  3
CVIEWDETAILSTYLE
350
1031B
  3
CVIEWSECTIONSTYLE
350
1031C
  3
DIMASSOC
350
5F
  3
HIDETEXT
350
63
  3
LAYEREVAL
350
10320
  3
LAYERNOTIFY
350
10321
  3
LIGHTINGUNITS
350
1031F
  3
MSLTSCALE
350
1031D
  0
DICTIONARY
  5
165CA
102
{ACAD_REACTORS
330
C
102
}
330
C
100
AcDbDictionary
281
     1
  3
AcDsRecords
350
165CC
  3
AcDsSchemas
350
165CB
1001
ACAD
1070
     2
  0
DICTIONARY
  5
82F
102
{ACAD_REACTORS
330
742
102
}
330
742
100
AcDbDictionary
281
     1
  0
DICTIONARY
  5
743
102
{ACAD_REACTORS
330
742
102
}
330
742
100
AcDbDictionary
281
     1
  0
DICTIONARY
  5
82E
102
{ACAD_REACTORS
330
742
102
}
330
742
100
AcDbDictionary
281
     1
1001
ACAD
1000
<All
  0
XRECORD
  5
10212
102
{ACAD_REACTORS
330
10211
102
}
330
10211
100
AcDbXrecord
280
     1
290
     1
  0
XRECORD
  5
10214
102
{ACAD_REACTORS
330
10213
102
}
330
10213
100
AcDbXrecord
280
     1
290
     1
  0
XRECORD
  5
10216
102
{ACAD_REACTORS
330
10215
102
}
330
10215
100
AcDbXrecord
280
     1
290
     1
  0
XRECORD
  5
1021A
102
{ACAD_REACTORS
330
10219
102
}
330
10219
100
AcDbXrecord
280
     1
290
     1
  0
XRECORD
  5
1021C
102
{ACAD_REACTORS
330
1021B
102
}
330
1021B
100
AcDbXrecord
280
     1
290
     1
  0
SORTENTSTABLE
  5
B107
102
{ACAD_REACTORS
330
B106
102
}
330
B106
100
AcDbSortentsTable
330
1F
331
295A5
  5
295A5
331
E299
  5
E299
331
296A0
  5
296A0
331
29587
  5
29587
331
29717
  5
2974F
331
F8D1
  5
F9D8
331
297C6
  5
297F9
331
83D
  5
83D
331
297C7
  5
297FA
331
29593
  5
29593
331
83F
  5
83F
331
295A3
  5
295A3
331
295A4
  5
295A4
331
29438
  5
294D0
331
290B1
  5
290B1
331
F6A7
  5
F9D5
331
296D6
  5
296D6
331
2978B
  5
2978B
331
29715
  5
2974E
  0
SORTENTSTABLE
  5
29584
102
{ACAD_REACTORS
330
29583
102
}
330
29583
100
AcDbSortentsTable
330
2957A
  0
SORTENTSTABLE
  5
29590
102
{ACAD_REACTORS
330
2958F
102
}
330
2958F
100
AcDbSortentsTable
330
29588
  0
SORTENTSTABLE
  5
295A0
102
{ACAD_REACTORS
330
2959F
102
}
330
2959F
100
AcDbSortentsTable
330
29594
  0
ACAD_PROXY_OBJECT
  5
F647
102
{ACAD_XDICTIONARY
360
16605
102
}
102
{ACAD_REACTORS
330
F646
102
}
330
F646
100
AcDbProxyObject
 90
      499
 91
      515
 95
    65563
 70
     0
 96
     1030
311
42134019401D001C801A4018C00D400C0024DC9400F001700104018C0158018401C80080015801A4019401DC0110019401D0018401A401B00124019000F80094008000A0009400F001700104018C0158018401C80080015801A4019401DC014C018C018401B0019400800170019800800088009401CC01B8008800F8009400
311
A403
 93
      603
310
9207000000180000000000000000A20403000000180000000000000000A2023300000018001000000180000000000000000A20400000000000017202028CC00000060002330000001800001F
340
11
340
0
340
16
340
11
340
16
340
16
 94
        0
  0
IMAGEDEF
  5
295A8
102
{ACAD_REACTORS
330
295A6
330
295A9
102
}
330
295A6
100
AcDbRasterImageDef
 90
        0
  1
C:\Users\silab\Desktop\Picture7.jpg
 10
1036.0
 20
775.0
 11
0.1693333333333333
 21
0.1693333333333333
280
     1
281
     5
  0
LAYOUT
  5
D3
102
{ACAD_REACTORS
330
1A
102
}
330
1A
100
AcDbPlotSettings
  1

  2
C:\Documents and Settings\basas\Application Data\Autodesk\AutoCAD 2005\R16.1\enu\plotters\Default Windows System Printer.pc3
  4

  6

 40
0.0
 41
0.0
 42
0.0
 43
0.0
 44
0.0
 45
0.0
 46
0.0
 47
0.0
 48
0.0
 49
0.0
140
0.0
141
0.0
142
1.0
143
1.0
 70
   688
 72
     0
 73
     0
 74
     5
  7

 75
    16
147
1.0
 76
     0
 77
     2
 78
   300
148
0.0
149
0.0
100
AcDbLayout
  1
Layout1
 70
     1
 71
     1
 10
0.0
 20
0.0
 11
12.0
 21
9.0
 12
0.0
 22
0.0
 32
0.0
 14
0.0
 24
0.0
 34
0.0
 15
0.0
 25
0.0
 35
0.0
146
0.0
 13
0.0
 23
0.0
 33
0.0
 16
1.0
 26
0.0
 36
0.0
 17
0.0
 27
1.0
 37
0.0
 76
     0
330
D2
  0
LAYOUT
  5
D7
102
{ACAD_REACTORS
330
1A
102
}
330
1A
100
AcDbPlotSettings
  1

  2
C:\Documents and Settings\basas\Application Data\Autodesk\AutoCAD 2005\R16.1\enu\plotters\Default Windows System Printer.pc3
  4

  6

 40
0.0
 41
0.0
 42
0.0
 43
0.0
 44
0.0
 45
0.0
 46
0.0
 47
0.0
 48
0.0
 49
0.0
140
0.0
141
0.0
142
1.0
143
1.0
 70
   688
 72
     0
 73
     0
 74
     5
  7

 75
    16
147
1.0
 76
     0
 77
     2
 78
   300
148
0.0
149
0.0
100
AcDbLayout
  1
Layout2
 70
     1
 71
     2
 10
0.0
 20
0.0
 11
12.0
 21
9.0
 12
0.0
 22
0.0
 32
0.0
 14
0.0
 24
0.0
 34
0.0
 15
0.0
 25
0.0
 35
0.0
146
0.0
 13
0.0
 23
0.0
 33
0.0
 16
1.0
 26
0.0
 36
0.0
 17
0.0
 27
1.0
 37
0.0
 76
     0
330
D6
  0
LAYOUT
  5
22
102
{ACAD_XDICTIONARY
360
102DD
102
}
102
{ACAD_REACTORS
330
1A
102
}
330
1A
100
AcDbPlotSettings
  1

  2
none_device
  4
ISO_A4_(210.00_x_297.00_MM)
  6

 40
7.5
 41
20.0
 42
7.5
 43
20.0
 44
210.0
 45
297.0
 46
11.54999923706054
 47
-13.65000009536743
 48
0.0
 49
0.0
140
0.0
141
0.0
142
1.0
143
8.704084754739808
 70
 11952
 72
     1
 73
     0
 74
     0
  7

 75
     0
147
0.1148885871608098
 76
     0
 77
     2
 78
   300
148
0.0
149
0.0
100
AcDbLayout
  1
Model
 70
     1
 71
     0
 10
0.0
 20
0.0
 11
12.0
 21
9.0
 12
0.0
 22
0.0
 32
0.0
 14
0.0
 24
0.0
 34
0.0
 15
0.0
 25
0.0
 35
0.0
146
0.0
 13
0.0
 23
0.0
 33
0.0
 16
1.0
 26
0.0
 36
0.0
 17
0.0
 27
1.0
 37
0.0
 76
     0
330
1F
331
EA
1001
ACAD_PSEXT
1000
None
1000
None
1000
Not applicable
1000
The layout will not be plotted unless a new plotter configuration name is selected.
1070
     0
  0
MATERIAL
  5
ED
102
{ACAD_REACTORS
330
6A
102
}
330
6A
100
AcDbMaterial
  1
ByBlock
  0
MATERIAL
  5
EC
102
{ACAD_REACTORS
330
6A
102
}
330
6A
100
AcDbMaterial
  1
ByLayer
  0
MATERIAL
  5
EE
102
{ACAD_REACTORS
330
6A
102
}
330
6A
100
AcDbMaterial
  1
Global
  0
ACAD_PROXY_OBJECT
  5
F643
102
{ACAD_XDICTIONARY
360
16601
102
}
102
{ACAD_REACTORS
330
F642
102
}
330
F642
100
AcDbProxyObject
 90
      499
 91
      513
 95
    65563
 70
     0
 96
      140
311
4214C01D0018401B80190018401C8019002F
 93
      660
310
40901902A40600000030400FEFFFFFF8000000000000008102B5E8DC0F42B5CFC0000000000001040405064068000000C1000000000000000410000000000000004102000000304015D90000000000000C03FF
340
14
340
0
340
11
340
0
 94
        0
1001
ACAD_MLEADERVER
1070
     2
  0
MLINESTYLE
  5
18
102
{ACAD_REACTORS
330
17
102
}
330
17
100
AcDbMlineStyle
  2
STANDARD
 70
     0
  3

 62
   256
 51
90.0
 52
90.0
 71
     2
 49
0.5
 62
   256
  6
BYLAYER
 49
-0.5
 62
   256
  6
BYLAYER
  0
ACDBPLACEHOLDER
  5
F
102
{ACAD_REACTORS
330
E
102
}
330
E
  0
ACAD_PROXY_OBJECT
  5
F631
102
{ACAD_REACTORS
330
F630
102
}
330
F630
100
AcDbProxyObject
 90
      499
 91
      512
 95
    65563
 70
     0
 96
       58
311
40CC400E800C403F
 93
        7
310
97
 94
        0
  0
ACAD_PROXY_OBJECT
  5
F632
102
{ACAD_REACTORS
330
F630
102
}
330
F630
100
AcDbProxyObject
 90
      499
 91
      512
 95
    65563
 70
     0
 96
       58
311
40CC400E800C803F
 93
       71
310
900000000000000101
 94
        0
  0
ACAD_PROXY_OBJECT
  5
F633
102
{ACAD_REACTORS
330
F630
102
}
330
F630
100
AcDbProxyObject
 90
      499
 91
      512
 95
    65563
 70
     0
 96
       58
311
40CC400E800D003F
 93
       71
310
900000000000004101
 94
        0
  0
ACAD_PROXY_OBJECT
  5
F634
102
{ACAD_REACTORS
330
F630
102
}
330
F630
100
AcDbProxyObject
 90
      499
 91
      512
 95
    65563
 70
     0
 96
       58
311
40CC400E800D403F
 93
       71
310
900000000000005101
 94
        0
  0
ACAD_PROXY_OBJECT
  5
F635
102
{ACAD_REACTORS
330
F630
102
}
330
F630
100
AcDbProxyObject
 90
      499
 91
      512
 95
    65563
 70
     0
 96
       58
311
40CC400E800E003F
 93
       71
310
900000000000008101
 94
        0
  0
ACAD_PROXY_OBJECT
  5
F636
102
{ACAD_REACTORS
330
F630
102
}
330
F630
100
AcDbProxyObject
 90
      499
 91
      512
 95
    65563
 70
     0
 96
       74
311
410C400E800C400C003F
 93
       71
310
900000000000009101
 94
        0
  0
ACAD_PROXY_OBJECT
  5
F637
102
{ACAD_REACTORS
330
F630
102
}
330
F630
100
AcDbProxyObject
 90
      499
 91
      512
 95
    65563
 70
     0
 96
       74
311
410C400E800C400D803F
 93
       71
310
90000000000000C101
 94
        0
  0
ACAD_PROXY_OBJECT
  5
F638
102
{ACAD_REACTORS
330
F630
102
}
330
F630
100
AcDbProxyObject
 90
      499
 91
      512
 95
    65563
 70
     0
 96
       74
311
410C400E800C800C003F
 93
       71
310
90000000000000D101
 94
        0
  0
ACAD_PROXY_OBJECT
  5
F639
102
{ACAD_REACTORS
330
F630
102
}
330
F630
100
AcDbProxyObject
 90
      499
 91
      512
 95
    65563
 70
     0
 96
       74
311
410C400E800CC00C003F
 93
       71
310
90000000000000F901
 94
        0
  0
ACAD_PROXY_OBJECT
  5
F63A
102
{ACAD_REACTORS
330
F630
102
}
330
F630
100
AcDbProxyObject
 90
      499
 91
      512
 95
    65563
 70
     0
 96
       74
311
410C400E800D000C003F
 93
       71
310
900000000000011101
 94
        0
  0
ACAD_PROXY_OBJECT
  5
F63B
102
{ACAD_REACTORS
330
F630
102
}
330
F630
100
AcDbProxyObject
 90
      499
 91
      512
 95
    65563
 70
     0
 96
       74
311
410C400E800D400C003F
 93
       71
310
900000000000012501
 94
        0
  0
ACAD_PROXY_OBJECT
  5
F63C
102
{ACAD_REACTORS
330
F630
102
}
330
F630
100
AcDbProxyObject
 90
      499
 91
      512
 95
    65563
 70
     0
 96
       90
311
414C400E800C400C000C003F
 93
       71
310
900000000000016501
 94
        0
  0
ACAD_PROXY_OBJECT
  5
F63D
102
{ACAD_REACTORS
330
F630
102
}
330
F630
100
AcDbProxyObject
 90
      499
 91
      512
 95
    65563
 70
     0
 96
       58
311
40CC800E800C403F
 93
       71
310
800000000000000405
 94
        0
  0
ACAD_PROXY_OBJECT
  5
F63E
102
{ACAD_REACTORS
330
F630
102
}
330
F630
100
AcDbProxyObject
 90
      499
 91
      512
 95
    65563
 70
     0
 96
       58
311
40CD000E800C403F
 93
       71
310
800000000000010405
 94
        0
  0
ACAD_PROXY_OBJECT
  5
F63F
102
{ACAD_REACTORS
330
F630
102
}
330
F630
100
AcDbProxyObject
 90
      499
 91
      512
 95
    65563
 70
     0
 96
       58
311
40CE000E800C403F
 93
       71
310
800000000000020405
 94
        0
  0
ACAD_PROXY_OBJECT
  5
F640
102
{ACAD_REACTORS
330
F630
102
}
330
F630
100
AcDbProxyObject
 90
      499
 91
      512
 95
    65563
 70
     0
 96
       74
311
410C400C000E800C403F
 93
       71
310
800000000000024405
 94
        0
  0
ACAD_PROXY_OBJECT
  5
F641
102
{ACAD_REACTORS
330
F630
102
}
330
F630
100
AcDbProxyObject
 90
      499
 91
      512
 95
    65563
 70
     0
 96
       90
311
414C400C000C000E800C403F
 93
       71
310
800000000000059405
 94
        0
  0
ACAD_PROXY_OBJECT
  5
F645
102
{ACAD_XDICTIONARY
360
16603
102
}
102
{ACAD_REACTORS
330
F644
102
}
330
F644
100
AcDbProxyObject
 90
      499
 91
      514
 95
    65563
 70
     0
 96
     1944
311
42134019401D001C801A4018C00D400C0011049002C0020004F002C00200051002C00200053002C00200058002C0020005A005649400F001700104018C0158018401C80080015801A4019401DC014C0194018C01D001A401BC01B8014C01D0018401C801D00124019000F8009400B4009400F001700104018C0158018401C8
311
0080015801A4019401DC014C0194018C01D001A401BC01B8011401B801900124019000F80094008000A0009400F001700104018C0158018401C80080015801A4019401DC014C018C018401B0019400800170019800800088009401CC01B8008800F8009400A4010641004E00530049003300310000
 93
     1301
310
92CD000000180000000000000000A2040000006000000000000000028800000000000001220233000000180009940000006000000000000000028800000000000000A20400000060000000000000000288100000000000005C8080C0000006000400000064003100000000000000881000000000000008808340C16A22A7D9
310
0FC9F8CAE65A70A583A07E1FE81C635378FA1F8CAE65A70A583A17E7944A7F127A97E9FF
340
11
340
0
340
0
340
16
340
16
340
11
 94
        0
  0
TABLESTYLE
  5
7F
102
{ACAD_XDICTIONARY
360
102D2
102
}
102
{ACAD_REACTORS
330
7E
102
}
330
7E
100
AcDbTableStyle
  3
Standard
 70
     0
 71
     0
 40
1.5
 41
1.5
280
     0
281
     0
  7
Standard
140
4.5
170
     2
 62
     0
 63
     7
283
     0
 90
      512
 91
        0
  1

274
    -2
284
     1
 64
     0
275
    -2
285
     1
 65
     0
276
    -2
286
     1
 66
     0
277
    -2
287
     1
 67
     0
278
    -2
288
     1
 68
     0
279
    -2
289
     1
 69
     0
  7
Standard
140
6.0
170
     5
 62
     0
 63
     7
283
     0
 90
      512
 91
        0
  1

274
    -2
284
     1
 64
     0
275
    -2
285
     1
 65
     0
276
    -2
286
     1
 66
     0
277
    -2
287
     1
 67
     0
278
    -2
288
     1
 68
     0
279
    -2
289
     1
 69
     0
  7
Standard
140
4.5
170
     5
 62
     0
 63
     7
283
     0
 90
      512
 91
        0
  1

274
    -2
284
     1
 64
     0
275
    -2
285
     1
 65
     0
276
    -2
286
     1
 66
     0
277
    -2
287
     1
 67
     0
278
    -2
288
     1
 68
     0
279
    -2
289
     1
 69
     0
  0
VISUALSTYLE
  5
F5
102
{ACAD_XDICTIONARY
360
165D7
102
}
102
{ACAD_REACTORS
330
EF
102
}
330
EF
100
AcDbVisualStyle
  2
2dWireframe
 70
     4
 71
     0
 72
     2
 73
     1
 90
        0
 40
-0.6
 41
-30.0
 62
     5
 63
     7
421
 16777215
 74
     1
 91
        4
 64
     7
 65
   257
 75
     1
175
     1
 42
1.0
 92
        0
 66
   257
 43
1.0
 76
     1
 77
     6
 78
     2
 67
     7
 79
     5
170
     0
171
     0
290
     0
174
     0
 93
        1
 44
0.0
173
     0
291
     0
 45
0.0
  0
VISUALSTYLE
  5
F7
102
{ACAD_XDICTIONARY
360
165DB
102
}
102
{ACAD_REACTORS
330
EF
102
}
330
EF
100
AcDbVisualStyle
  2
3D Hidden
 70
     6
 71
     1
 72
     2
 73
     2
 90
        0
 40
-0.6
 41
-30.0
 62
     5
 63
     7
421
 16777215
 74
     2
 91
        2
 64
     7
 65
   257
 75
     2
175
     1
 42
40.0
 92
        0
 66
   257
 43
1.0
 76
     1
 77
     6
 78
     2
 67
     7
 79
     3
170
     0
171
     0
290
     0
174
     0
 93
        1
 44
0.0
173
     0
291
     0
 45
0.0
  0
VISUALSTYLE
  5
F6
102
{ACAD_XDICTIONARY
360
165D9
102
}
102
{ACAD_REACTORS
330
EF
102
}
330
EF
100
AcDbVisualStyle
  2
3dWireframe
 70
     5
 71
     0
 72
     2
 73
     1
 90
        0
 40
-0.6
 41
-30.0
 62
     5
 63
     7
421
 16777215
 74
     1
 91
        4
 64
     7
 65
   257
 75
     1
175
     1
 42
1.0
 92
        0
 66
   257
 43
1.0
 76
     1
 77
     6
 78
     2
 67
     7
 79
     5
170
     0
171
     0
290
     0
174
     0
 93
        1
 44
0.0
173
     0
291
     0
 45
0.0
  0
VISUALSTYLE
  5
F4
102
{ACAD_XDICTIONARY
360
165D5
102
}
102
{ACAD_REACTORS
330
EF
102
}
330
EF
100
AcDbVisualStyle
  2
Basic
 70
     7
 71
     1
 72
     0
 73
     1
 90
        0
 40
-0.6
 41
-30.0
 62
     5
 63
     7
421
 16777215
 74
     0
 91
        4
 64
     7
 65
   257
 75
     1
175
     1
 42
1.0
 92
        8
 66
     7
 43
1.0
 76
     1
 77
     6
 78
     2
 67
     7
 79
     5
170
     0
171
     0
290
     0
174
     0
 93
        1
 44
0.0
173
     0
291
     1
 45
0.0
  0
VISUALSTYLE
  5
FB
102
{ACAD_XDICTIONARY
360
165E3
102
}
102
{ACAD_REACTORS
330
EF
102
}
330
EF
100
AcDbVisualStyle
  2
Brighten
 70
    12
 71
     2
 72
     2
 73
     1
 90
        0
 40
-0.6
 41
-30.0
 62
     5
 63
     7
421
 16777215
 74
     1
 91
        4
 64
     7
 65
   257
 75
     1
175
     1
 42
1.0
 92
        8
 66
     7
 43
1.0
 76
     1
 77
     6
 78
     2
 67
     7
 79
     5
170
     0
171
     0
290
     0
174
     0
 93
        1
 44
50.0
173
     0
291
     1
 45
0.0
  0
VISUALSTYLE
  5
FF
102
{ACAD_XDICTIONARY
360
165EB
102
}
102
{ACAD_REACTORS
330
EF
102
}
330
EF
100
AcDbVisualStyle
  2
ColorChange
 70
    16
 71
     2
 72
     2
 73
     3
 90
        0
 40
-0.6
 41
-30.0
 62
     5
 63
     8
421
  8421504
 74
     1
 91
        4
 64
     7
 65
   257
 75
     1
175
     1
 42
1.0
 92
        8
 66
     8
424
  8421504
 43
1.0
 76
     1
 77
     6
 78
     2
 67
     7
 79
     5
170
     0
171
     0
290
     0
174
     0
 93
        1
 44
0.0
173
     0
291
     1
 45
0.0
  0
VISUALSTYLE
  5
F8
102
{ACAD_XDICTIONARY
360
165DD
102
}
102
{ACAD_REACTORS
330
EF
102
}
330
EF
100
AcDbVisualStyle
  2
Conceptual
 70
     9
 71
     3
 72
     2
 73
     1
 90
        0
 40
-0.6
 41
-30.0
 62
     5
 63
     7
421
 16777215
 74
     2
 91
        2
 64
     7
 65
   257
 75
     1
175
     1
 42
40.0
 92
        8
 66
     7
 43
1.0
 76
     1
 77
     6
 78
     2
 67
     7
 79
     3
170
     0
171
     0
290
     0
174
     0
 93
        1
 44
0.0
173
     0
291
     0
 45
0.0
  0
VISUALSTYLE
  5
FA
102
{ACAD_XDICTIONARY
360
165E1
102
}
102
{ACAD_REACTORS
330
EF
102
}
330
EF
100
AcDbVisualStyle
  2
Dim
 70
    11
 71
     2
 72
     2
 73
     1
 90
        0
 40
-0.6
 41
-30.0
 62
     5
 63
     7
421
 16777215
 74
     1
 91
        4
 64
     7
 65
   257
 75
     1
175
     1
 42
1.0
 92
        8
 66
     7
 43
1.0
 76
     1
 77
     6
 78
     2
 67
     7
 79
     5
170
     0
171
     0
290
     0
174
     0
 93
        1
 44
-50.0
173
     0
291
     1
 45
0.0
  0
VISUALSTYLE
  5
F62F
102
{ACAD_XDICTIONARY
360
165FF
102
}
102
{ACAD_REACTORS
330
EF
102
}
330
EF
100
AcDbVisualStyle
  2
EdgeColorOff
 70
    22
 71
     2
 72
     2
 73
     0
 90
        0
 40
-0.6
 41
-30.0
 62
     5
 63
     7
421
 16777215
 74
     1
 91
        4
 64
     7
 65
   257
 75
     1
175
     1
 42
1.0
 92
        8
 66
     7
 43
1.0
 76
     1
 77
     6
 78
     2
 67
     7
 79
     5
170
     0
171
     0
290
     0
174
     0
 93
        1
 44
0.0
173
     0
291
     1
 45
0.0
  0
VISUALSTYLE
  5
FE
102
{ACAD_XDICTIONARY
360
165E9
102
}
102
{ACAD_REACTORS
330
EF
102
}
330
EF
100
AcDbVisualStyle
  2
Facepattern
 70
    15
 71
     2
 72
     2
 73
     1
 90
        0
 40
-0.6
 41
-30.0
 62
     5
 63
     7
421
 16777215
 74
     1
 91
        4
 64
     7
 65
   257
 75
     1
175
     1
 42
1.0
 92
        8
 66
     7
 43
1.0
 76
     1
 77
     6
 78
     2
 67
     7
 79
     5
170
     0
171
     0
290
     0
174
     0
 93
        1
 44
0.0
173
     0
291
     1
 45
0.0
  0
VISUALSTYLE
  5
F0
102
{ACAD_XDICTIONARY
360
165CD
102
}
102
{ACAD_REACTORS
330
EF
102
}
330
EF
100
AcDbVisualStyle
  2
Flat
 70
     0
 71
     2
 72
     1
 73
     1
 90
        2
 40
-0.6
 41
30.0
 62
     5
 63
     7
421
 16777215
 74
     0
 91
        4
 64
     7
 65
   257
 75
     1
175
     1
 42
1.0
 92
        8
 66
     7
 43
1.0
 76
     1
 77
     6
 78
     2
 67
     7
 79
     5
170
     0
171
     0
290
     0
174
     0
 93
        1
 44
0.0
173
     0
291
     1
 45
0.0
  0
VISUALSTYLE
  5
F1
102
{ACAD_XDICTIONARY
360
165CF
102
}
102
{ACAD_REACTORS
330
EF
102
}
330
EF
100
AcDbVisualStyle
  2
FlatWithEdges
 70
     1
 71
     2
 72
     1
 73
     1
 90
        2
 40
-0.6
 41
30.0
 62
     5
 63
     7
421
 16777215
 74
     1
 91
        4
 64
     7
 65
   257
 75
     1
175
     1
 42
1.0
 92
        0
 66
   257
 43
1.0
 76
     1
 77
     6
 78
     2
 67
     7
 79
     5
170
     0
171
     0
290
     0
174
     0
 93
        1
 44
0.0
173
     0
291
     1
 45
0.0
  0
VISUALSTYLE
  5
F2
102
{ACAD_XDICTIONARY
360
165D1
102
}
102
{ACAD_REACTORS
330
EF
102
}
330
EF
100
AcDbVisualStyle
  2
Gouraud
 70
     2
 71
     2
 72
     2
 73
     1
 90
        2
 40
-0.6
 41
30.0
 62
     5
 63
     7
421
 16777215
 74
     0
 91
        4
 64
     7
 65
   257
 75
     1
175
     1
 42
1.0
 92
        0
 66
     7
 43
1.0
 76
     1
 77
     6
 78
     2
 67
     7
 79
     5
170
     0
171
     0
290
     0
174
     0
 93
        1
 44
0.0
173
     0
291
     1
 45
0.0
  0
VISUALSTYLE
  5
F3
102
{ACAD_XDICTIONARY
360
165D3
102
}
102
{ACAD_REACTORS
330
EF
102
}
330
EF
100
AcDbVisualStyle
  2
GouraudWithEdges
 70
     3
 71
     2
 72
     2
 73
     1
 90
        2
 40
-0.6
 41
30.0
 62
     5
 63
     7
421
 16777215
 74
     1
 91
        4
 64
     7
 65
   257
 75
     1
175
     1
 42
1.0
 92
        0
 66
   257
 43
1.0
 76
     1
 77
     6
 78
     2
 67
     7
 79
     5
170
     0
171
     0
290
     0
174
     0
 93
        1
 44
0.0
173
     0
291
     1
 45
0.0
  0
VISUALSTYLE
  5
F627
102
{ACAD_XDICTIONARY
360
165EF
102
}
102
{ACAD_REACTORS
330
EF
102
}
330
EF
100
AcDbVisualStyle
  2
Hidden
 70
     6
 71
     1
 72
     2
 73
     2
 90
        0
 40
-0.6
 41
-30.0
 62
     5
 63
     7
421
 16777215
 74
     2
 91
        2
 64
     7
 65
   257
 75
     2
175
     1
 42
40.0
 92
        0
 66
   257
 43
1.0
 76
     1
 77
     6
 78
     2
 67
     7
 79
     3
170
     0
171
     0
290
     0
174
     0
 93
        1
 44
0.0
173
     0
291
     0
 45
0.0
  0
VISUALSTYLE
  5
F62D
102
{ACAD_XDICTIONARY
360
165FB
102
}
102
{ACAD_REACTORS
330
EF
102
}
330
EF
100
AcDbVisualStyle
  2
JitterOff
 70
    20
 71
     2
 72
     2
 73
     0
 90
        0
 40
-0.6
 41
-30.0
 62
     5
 63
     7
421
 16777215
 74
     1
 91
        4
 64
     7
 65
   257
 75
     1
175
     1
 42
1.0
 92
       10
 66
     7
 43
1.0
 76
     1
 77
     6
 78
     2
 67
     7
 79
     5
170
     0
171
     0
290
     0
174
     0
 93
        1
 44
0.0
173
     0
291
     1
 45
0.0
  0
VISUALSTYLE
  5
FD
102
{ACAD_XDICTIONARY
360
165E7
102
}
102
{ACAD_REACTORS
330
EF
102
}
330
EF
100
AcDbVisualStyle
  2
Linepattern
 70
    14
 71
     2
 72
     2
 73
     1
 90
        0
 40
-0.6
 41
-30.0
 62
     5
 63
     7
421
 16777215
 74
     1
 91
        4
 64
     7
 65
   257
 75
     7
175
     7
 42
1.0
 92
        8
 66
     7
 43
1.0
 76
     1
 77
     6
 78
     2
 67
     7
 79
     5
170
     0
171
     0
290
     0
174
     0
 93
        1
 44
0.0
173
     0
291
     1
 45
0.0
  0
VISUALSTYLE
  5
F62E
102
{ACAD_XDICTIONARY
360
165FD
102
}
102
{ACAD_REACTORS
330
EF
102
}
330
EF
100
AcDbVisualStyle
  2
OverhangOff
 70
    21
 71
     2
 72
     2
 73
     0
 90
        0
 40
-0.6
 41
-30.0
 62
     5
 63
     7
421
 16777215
 74
     1
 91
        4
 64
     7
 65
   257
 75
     1
175
     1
 42
1.0
 92
        9
 66
     7
 43
1.0
 76
     1
 77
     6
 78
     2
 67
     7
 79
     5
170
     0
171
     0
290
     0
174
     0
 93
        1
 44
0.0
173
     0
291
     1
 45
0.0
  0
VISUALSTYLE
  5
F9
102
{ACAD_XDICTIONARY
360
165DF
102
}
102
{ACAD_REACTORS
330
EF
102
}
330
EF
100
AcDbVisualStyle
  2
Realistic
 70
     8
 71
     2
 72
     2
 73
     1
 90
        0
 40
-0.6
 41
-30.0
 62
     5
 63
     7
421
 16777215
 74
     1
 91
        0
 64
     7
 65
   257
 75
     1
175
     1
 42
1.0
 92
        8
 66
     8
424
  7895160
 43
1.0
 76
     1
 77
     6
 78
     2
 67
     7
 79
     5
170
     0
171
     0
290
     0
174
     0
 93
       13
 44
0.0
173
     0
291
     0
 45
0.0
  0
VISUALSTYLE
  5
F62C
102
{ACAD_XDICTIONARY
360
165F9
102
}
102
{ACAD_REACTORS
330
EF
102
}
330
EF
100
AcDbVisualStyle
  2
Shaded
 70
    27
 71
     2
 72
     2
 73
     1
 90
        2
 40
-0.6
 41
30.0
 62
     5
 63
     7
421
 16777215
 74
     0
 91
        4
 64
     7
 65
   257
 75
     1
175
     1
 42
1.0
 92
        8
 66
   257
 43
1.0
 76
     1
 77
     6
 78
     2
 67
     8
425
  7895160
 79
     3
170
     0
171
     0
290
     0
174
     0
 93
        5
 44
0.0
173
     0
291
     0
 45
0.0
  0
VISUALSTYLE
  5
F62B
102
{ACAD_XDICTIONARY
360
165F7
102
}
102
{ACAD_REACTORS
330
EF
102
}
330
EF
100
AcDbVisualStyle
  2
Shaded with edges
 70
    26
 71
     2
 72
     2
 73
     1
 90
        2
 40
-0.6
 41
30.0
 62
     5
 63
     7
421
 16777215
 74
     1
 91
       10
 64
     7
 65
   257
 75
     2
175
     1
 42
1.0
 92
        8
 66
   257
 43
1.0
 76
     1
 77
     6
 78
     2
 67
     7
 79
     3
170
     0
171
     0
290
     0
174
     0
 93
        5
 44
0.0
173
     0
291
     0
 45
0.0
  0
VISUALSTYLE
  5
F628
102
{ACAD_XDICTIONARY
360
165F1
102
}
102
{ACAD_REACTORS
330
EF
102
}
330
EF
100
AcDbVisualStyle
  2
Shades of Gray
 70
    23
 71
     2
 72
     2
 73
     3
 90
        0
 40
-0.6
 41
-30.0
 62
     5
 63
     7
421
 16777215
 74
     2
 91
        2
 64
     7
 65
     7
 75
     1
175
     1
 42
40.0
 92
        8
 66
     7
 43
1.0
 76
     1
 77
     6
 78
     2
 67
     7
 79
     3
170
     0
171
     0
290
     0
174
     0
 93
        1
 44
0.0
173
     0
291
     0
 45
0.0
  0
VISUALSTYLE
  5
F629
102
{ACAD_XDICTIONARY
360
165F3
102
}
102
{ACAD_REACTORS
330
EF
102
}
330
EF
100
AcDbVisualStyle
  2
Sketchy
 70
    24
 71
     1
 72
     2
 73
     2
 90
        0
 40
-0.6
 41
-30.0
 62
     5
 63
     7
421
 16777215
 74
     2
 91
        2
 64
     7
 65
     7
 75
     1
175
     1
 42
40.0
 92
       11
 66
     7
 43
1.0
 76
     1
 77
     6
 78
     2
 67
     7
 79
     6
170
     0
171
     0
290
     0
174
     0
 93
        1
 44
0.0
173
     0
291
     0
 45
0.0
  0
VISUALSTYLE
  5
FC
102
{ACAD_XDICTIONARY
360
165E5
102
}
102
{ACAD_REACTORS
330
EF
102
}
330
EF
100
AcDbVisualStyle
  2
Thicken
 70
    13
 71
     2
 72
     2
 73
     1
 90
        0
 40
-0.6
 41
-30.0
 62
     5
 63
     7
421
 16777215
 74
     1
 91
        4
 64
     7
 65
   257
 75
     1
175
     1
 42
1.0
 92
       12
 66
     7
 43
1.0
 76
     1
 77
     6
 78
     2
 67
     7
 79
     5
170
     0
171
     0
290
     0
174
     0
 93
        1
 44
0.0
173
     0
291
     1
 45
0.0
  0
VISUALSTYLE
  5
F626
102
{ACAD_XDICTIONARY
360
165ED
102
}
102
{ACAD_REACTORS
330
EF
102
}
330
EF
100
AcDbVisualStyle
  2
Wireframe
 70
     5
 71
     0
 72
     2
 73
     0
 90
        0
 40
-0.6
 41
-30.0
 62
     5
 63
     7
421
 16777215
 74
     1
 91
        4
 64
     7
 65
   257
 75
     1
175
     1
 42
1.0
 92
        0
 66
   257
 43
1.0
 76
     1
 77
     6
 78
     2
 67
     7
 79
     3
170
     0
171
     0
290
     0
174
     0
 93
        1
 44
0.0
173
     0
291
     0
 45
0.0
  0
VISUALSTYLE
  5
F62A
102
{ACAD_XDICTIONARY
360
165F5
102
}
102
{ACAD_REACTORS
330
EF
102
}
330
EF
100
AcDbVisualStyle
  2
X-Ray
 70
    25
 71
     2
 72
     2
 73
     1
 90
        1
 40
0.5
 41
-30.0
 62
     5
 63
     7
421
 16777215
 74
     1
 91
        0
 64
     7
 65
   257
 75
     1
175
     1
 42
1.0
 92
        8
 66
     7
 43
1.0
 76
     1
 77
     6
 78
     2
 67
     7
 79
     3
170
     0
171
     0
290
     0
174
     0
 93
       13
 44
0.0
173
     0
291
     0
 45
0.0
  0
DICTIONARYVAR
  5
1031E
102
{ACAD_REACTORS
330
5E
102
}
330
5E
100
DictionaryVariables
280
     0
  1
1:1
  0
DICTIONARYVAR
  5
1031A
102
{ACAD_REACTORS
330
5E
102
}
330
5E
100
DictionaryVariables
280
     0
  1
STANDARD
  0
DICTIONARYVAR
  5
84
102
{ACAD_REACTORS
330
5E
102
}
330
5E
100
DictionaryVariables
280
     0
  1
STANDARD
  0
DICTIONARYVAR
  5
1031B
102
{ACAD_REACTORS
330
5E
102
}
330
5E
100
DictionaryVariables
280
     0
  1
Metric50
  0
DICTIONARYVAR
  5
1031C
102
{ACAD_REACTORS
330
5E
102
}
330
5E
100
DictionaryVariables
280
     0
  1
Metric50
  0
DICTIONARYVAR
  5
5F
102
{ACAD_REACTORS
330
5E
102
}
330
5E
100
DictionaryVariables
280
     0
  1
2
  0
DICTIONARYVAR
  5
63
102
{ACAD_REACTORS
330
5E
102
}
330
5E
100
DictionaryVariables
280
     0
  1
1
  0
DICTIONARYVAR
  5
10320
102
{ACAD_REACTORS
330
5E
102
}
330
5E
100
DictionaryVariables
280
     0
  1
1
  0
DICTIONARYVAR
  5
10321
102
{ACAD_REACTORS
330
5E
102
}
330
5E
100
DictionaryVariables
280
     0
  1
15
  0
DICTIONARYVAR
  5
1031F
102
{ACAD_REACTORS
330
5E
102
}
330
5E
100
DictionaryVariables
280
     0
  1
0
  0
DICTIONARYVAR
  5
1031D
102
{ACAD_REACTORS
330
5E
102
}
330
5E
100
DictionaryVariables
280
     0
  1
0
  0
DICTIONARY
  5
165CC
102
{ACAD_REACTORS
330
165CA
102
}
330
165CA
100
AcDbDictionary
281
     1
  0
DICTIONARY
  5
165CB
102
{ACAD_REACTORS
330
165CA
102
}
330
165CA
100
AcDbDictionary
281
     1
  3
8796079156560
350
165C5
  3
8796079156576
350
165C6
  3
8796079156592
350
165C7
  3
8796079156608
350
165C8
  3
8796079156624
350
165C9
  0
DICTIONARY
  5
16605
330
F647
100
AcDbDictionary
280
     1
281
     1
  3
ACAD_XREC_ROUNDTRIP
360
16606
  0
DICTIONARY
  5
102DD
330
22
100
AcDbDictionary
280
     1
281
     1
  3
ADSK_XREC_LAYOUTTHUMBNAIL
360
102DE
  0
DICTIONARY
  5
16601
330
F643
100
AcDbDictionary
280
     1
281
     1
  3
ACAD_XREC_ROUNDTRIP
360
16602
  0
DICTIONARY
  5
16603
330
F645
100
AcDbDictionary
280
     1
281
     1
  3
ACAD_XREC_ROUNDTRIP
360
16604
  0
DICTIONARY
  5
102D2
330
7F
100
AcDbDictionary
280
     1
281
     1
  3
ACAD_ROUNDTRIP_2008_TABLESTYLE_CELLSTYLEMAP
360
165C3
  0
DICTIONARY
  5
165D7
330
F5
100
AcDbDictionary
280
     1
281
     1
  3
ACAD_XREC_ROUNDTRIP
360
165D8
  0
DICTIONARY
  5
165DB
330
F7
100
AcDbDictionary
280
     1
281
     1
  3
ACAD_XREC_ROUNDTRIP
360
165DC
  0
DICTIONARY
  5
165D9
330
F6
100
AcDbDictionary
280
     1
281
     1
  3
ACAD_XREC_ROUNDTRIP
360
165DA
  0
DICTIONARY
  5
165D5
330
F4
100
AcDbDictionary
280
     1
281
     1
  3
ACAD_XREC_ROUNDTRIP
360
165D6
  0
DICTIONARY
  5
165E3
330
FB
100
AcDbDictionary
280
     1
281
     1
  3
ACAD_XREC_ROUNDTRIP
360
165E4
  0
DICTIONARY
  5
165EB
330
FF
100
AcDbDictionary
280
     1
281
     1
  3
ACAD_XREC_ROUNDTRIP
360
165EC
  0
DICTIONARY
  5
165DD
330
F8
100
AcDbDictionary
280
     1
281
     1
  3
ACAD_XREC_ROUNDTRIP
360
165DE
  0
DICTIONARY
  5
165E1
330
FA
100
AcDbDictionary
280
     1
281
     1
  3
ACAD_XREC_ROUNDTRIP
360
165E2
  0
DICTIONARY
  5
165FF
330
F62F
100
AcDbDictionary
280
     1
281
     1
  3
ACAD_XREC_ROUNDTRIP
360
16600
  0
DICTIONARY
  5
165E9
330
FE
100
AcDbDictionary
280
     1
281
     1
  3
ACAD_XREC_ROUNDTRIP
360
165EA
  0
DICTIONARY
  5
165CD
330
F0
100
AcDbDictionary
280
     1
281
     1
  3
ACAD_XREC_ROUNDTRIP
360
165CE
  0
DICTIONARY
  5
165CF
330
F1
100
AcDbDictionary
280
     1
281
     1
  3
ACAD_XREC_ROUNDTRIP
360
165D0
  0
DICTIONARY
  5
165D1
330
F2
100
AcDbDictionary
280
     1
281
     1
  3
ACAD_XREC_ROUNDTRIP
360
165D2
  0
DICTIONARY
  5
165D3
330
F3
100
AcDbDictionary
280
     1
281
     1
  3
ACAD_XREC_ROUNDTRIP
360
165D4
  0
DICTIONARY
  5
165EF
330
F627
100
AcDbDictionary
280
     1
281
     1
  3
ACAD_XREC_ROUNDTRIP
360
165F0
  0
DICTIONARY
  5
165FB
330
F62D
100
AcDbDictionary
280
     1
281
     1
  3
ACAD_XREC_ROUNDTRIP
360
165FC
  0
DICTIONARY
  5
165E7
330
FD
100
AcDbDictionary
280
     1
281
     1
  3
ACAD_XREC_ROUNDTRIP
360
165E8
  0
DICTIONARY
  5
165FD
330
F62E
100
AcDbDictionary
280
     1
281
     1
  3
ACAD_XREC_ROUNDTRIP
360
165FE
  0
DICTIONARY
  5
165DF
330
F9
100
AcDbDictionary
280
     1
281
     1
  3
ACAD_XREC_ROUNDTRIP
360
165E0
  0
DICTIONARY
  5
165F9
330
F62C
100
AcDbDictionary
280
     1
281
     1
  3
ACAD_XREC_ROUNDTRIP
360
165FA
  0
DICTIONARY
  5
165F7
330
F62B
100
AcDbDictionary
280
     1
281
     1
  3
ACAD_XREC_ROUNDTRIP
360
165F8
  0
DICTIONARY
  5
165F1
330
F628
100
AcDbDictionary
280
     1
281
     1
  3
ACAD_XREC_ROUNDTRIP
360
165F2
  0
DICTIONARY
  5
165F3
330
F629
100
AcDbDictionary
280
     1
281
     1
  3
ACAD_XREC_ROUNDTRIP
360
165F4
  0
DICTIONARY
  5
165E5
330
FC
100
AcDbDictionary
280
     1
281
     1
  3
ACAD_XREC_ROUNDTRIP
360
165E6
  0
DICTIONARY
  5
165ED
330
F626
100
AcDbDictionary
280
     1
281
     1
  3
ACAD_XREC_ROUNDTRIP
360
165EE
  0
DICTIONARY
  5
165F5
330
F62A
100
AcDbDictionary
280
     1
281
     1
  3
ACAD_XREC_ROUNDTRIP
360
165F6
  0
XRECORD
  5
165C5
102
{ACAD_REACTORS
330
165CB
102
}
330
165CB
100
AcDbXrecord
280
     1
  1
AcDb_Thumbnail_Schema
102
{ATTRRECORD
341
165C6
  2
AcDbDs::TreatedAsObjectData
280
     1
291
     1
102
ATTRRECORD}
102
{ATTRRECORD
341
165C7
  2
AcDbDs::Legacy
280
     1
291
     1
102
ATTRRECORD}
  2
AcDbDs::ID
280
    10
 91
        8
102
{ATTRRECORD
341
165C8
  2
AcDs:Indexable
280
     1
291
     1
102
ATTRRECORD}
102
{ATTRRECORD
341
165C9
  2
AcDbDs::HandleAttribute
280
     7
282
     1
102
ATTRRECORD}
  2
Thumbnail_Data
280
    15
 91
        0
  0
XRECORD
  5
165C6
102
{ACAD_REACTORS
330
165CB
102
}
330
165CB
100
AcDbXrecord
280
     1
  1
AcDbDs::TreatedAsObjectDataSchema
  2
AcDbDs::TreatedAsObjectData
280
     1
 91
        0
  0
XRECORD
  5
165C7
102
{ACAD_REACTORS
330
165CB
102
}
330
165CB
100
AcDbXrecord
280
     1
  1
AcDbDs::LegacySchema
  2
AcDbDs::Legacy
280
     1
 91
        0
  0
XRECORD
  5
165C8
102
{ACAD_REACTORS
330
165CB
102
}
330
165CB
100
AcDbXrecord
280
     1
  1
AcDbDs::IndexedPropertySchema
  2
AcDs:Indexable
280
     1
 91
        0
  0
XRECORD
  5
165C9
102
{ACAD_REACTORS
330
165CB
102
}
330
165CB
100
AcDbXrecord
280
     1
  1
AcDbDs::HandleAttributeSchema
  2
AcDbDs::HandleAttribute
280
     7
 91
        1
284
     1
  0
XRECORD
  5
16606
102
{ACAD_REACTORS
330
16605
102
}
330
16605
100
AcDbXrecord
280
     1
102
DISPLAYNAME
  1
Metric50
102
FLAGS
 90
        0
  0
XRECORD
  5
102DE
102
{ACAD_REACTORS
330
102DD
102
}
330
102DD
100
AcDbXrecord
280
     1
310
28000000000100006E0000000100080000000000006E0000010000000100000000010000000000003028210000000000C8C8C8FF000000FF000000FF000000FF000000FF000000FF000000FF000000FF000000FF330000FF660000FF990000FFCC0000FFFF0000FF003300FF333300FF663300FF993300FFCC3300FFFF3300
310
FF006600FF336600FF666600FF996600FFCC6600FFFF6600FF009900FF339900FF669900FF999900FFCC9900FFFF9900FF00CC00FF33CC00FF66CC00FF99CC00FFCCCC00FFFFCC00FF00FF00FF33FF00FF66FF00FF99FF00FFCCFF00FFFFFF00FF000033FF330033FF660033FF990033FFCC0033FFFF0033FF003333FF3333
310
33FF663333FF993333FFCC3333FFFF3333FF006633FF336633FF666633FF996633FFCC6633FFFF6633FF009933FF339933FF669933FF999933FFCC9933FFFF9933FF00CC33FF33CC33FF66CC33FF99CC33FFCCCC33FFFFCC33FF00FF33FF33FF33FF66FF33FF99FF33FFCCFF33FFFFFF33FF000066FF330066FF660066FF99
310
0066FFCC0066FFFF0066FF003366FF333366FF663366FF993366FFCC3366FFFF3366FF006666FF336666FF666666FF996666FFCC6666FFFF6666FF009966FF339966FF669966FF999966FFCC9966FFFF9966FF00CC66FF33CC66FF66CC66FF99CC66FFCCCC66FFFFCC66FF00FF66FF33FF66FF66FF66FF99FF66FFCCFF66FF
310
FFFF66FF000099FF330099FF660099FF990099FFCC0099FFFF0099FF003399FF333399FF663399FF993399FFCC3399FFFF3399FF006699FF336699FF666699FF996699FFCC6699FFFF6699FF009999FF339999FF669999FF999999FFCC9999FFFF9999FF00CC99FF33CC99FF66CC99FF99CC99FFCCCC99FFFFCC99FF00FF99
310
FF33FF99FF66FF99FF99FF99FFCCFF99FFFFFF99FF0000CCFF3300CCFF6600CCFF9900CCFFCC00CCFFFF00CCFF0033CCFF3333CCFF6633CCFF9933CCFFCC33CCFFFF33CCFF0066CCFF3366CCFF6666CCFF9966CCFFCC66CCFFFF66CCFF0099CCFF3399CCFF6699CCFF9999CCFFCC99CCFFFF99CCFF00CCCCFF33CCCCFF66CC
310
CCFF99CCCCFFCCCCCCFFFFCCCCFF00FFCCFF33FFCCFF66FFCCFF99FFCCFFCCFFCCFFFFFFCCFF0000FFFF3300FFFF6600FFFF9900FFFFCC00FFFFFF00FFFF0033FFFF3333FFFF6633FFFF9933FFFFCC33FFFFFF33FFFF0066FFFF3366FFFF6666FFFF9966FFFFCC66FFFFFF66FFFF0099FFFF3399FFFF6699FFFF9999FFFFCC
310
99FFFFFF99FFFF00CCFFFF33CCFFFF66CCFFFF99CCFFFFCCCCFFFFFFCCFFFF00FFFFFF33FFFFFF66FFFFFF99FFFFFFCCFFFFFFFFFFFFFF000000FF0D0D0DFF1A1A1AFF282828FF353535FF434343FF505050FF5D5D5DFF6B6B6BFF787878FF868686FF939393FFA1A1A1FFAEAEAEFFBBBBBBFFC9C9C9FFD6D6D6FFE4E4E4FF
310
F1F1F1FFFFFFFFFF000000FF000000FF000000FF000000FF000000FF000000FF000000FF000000FF000000FF000000FF00000000000000000000000000000000000000000000000000000000000000000000000000000000000000000000000000000000000000000000000000000000000000000000000000000000000000
310
00000000000000000000000000000000000000000000000000000000000000000000000000000000000000000000000000000000000000000000000000000000000000000000000000000000000000000000000000000000000000000000000000000000000000000000000000000000000000000000000000000000000000
310
00000000000000000000000000000000000000000000000000000000000000000000000000000000000000000000000000000000000000000000000000000000000000000000000000000000000000000000000000000000000000000000000000000000000000000000000000000000000000000000000000000000000000
310
00000000000000000000000000000000000000000000000000000000000000000000000000000000000000000000000000000000000000000000000000000000000000000000000000000000000000000000000000000000000000000000000000000000000000000000000000000000000000000000000000000000000000
310
00000000000000000000000000000000000000000000000000000000000000000000000000000000000000000000000000000000000000000000000000000000000000000000000000000000000000000000000000000000000000000000000000000000000000000000000000000000000000000000000000000000000000
310
00000000000000000000000000000000000000000000000000000000000000000000000000000000000000000000000000000000000000000000000000000000000000000000000000000000000000000000000000000000000000000000000000000000000000000000000000000000000000000000000000000000000000
310
00000000000000000000000000000000000000000000000000000000000000000000000000000000000000000000000000000000000000000000000000000000000000000000000000000000000000000000000000000000000000000000000000000000000000000000000000000000000000000000000000000000000000
310
00000000000000000000000000000000000000000000000000000000000000000000000000000000000000000000000000000000000000000000000000000000000000000000000000000000000000000000000000000000000000000000000000000000000000000000000000000000000000000000000000000000000000
310
00000000000000000000000000000000000000000000000000000000000000000000000000000000000000000000000000000000000000000000000000000000000000000000000000000000000000000000000000000000000000000000000000000000000000000000000000000000000000000000000000000000000000
310
00000000000000000000000000000000000000000000000000000000000000000000000000000000000000000000000000000000000000000000000000000000000000000000000000000000000000000000000000000000000000000000000000000000000000000000000000000000000000000000000000000000000000
310
00000000000000000000000000000000000000000000000000000000000000000000000000000000000000000000000000000000000000000000000000000000000000000000000000000000000000000000000000000000000000000000000000000000000000000000000000000000000000000000000000000000000000
310
00000000000000000000000000000000000000000000000000000000000000000000000000000000000000000000000000000000000000000000000000000000000000000000000000000000000000000000000000000000000000000000000000000000000000000000000000000000000000000000000000000000000000
310
00000000000000000000000000000000000000000000000000000000000000000000000000000000000000000000000000000000000000000000000000000000000000000000000000000000000000000000000000000000000000000000000000000000000000000000000000000000000000000000000000000000000000
310
00000000000000000000000000000000000000000000000000000000000000000000000000000000000000000000000000000000000000000000000000000000000000000000000000000000000000000000000000000000000000000000000000000000000000000000000000000000000000000000000000000000000000
310
00000000000000000000000000000000000000000000000000000000000000000000000000000000000000000000000000000000000000000000000000000000000000000000000000000000000000000000000000000000000000000000000000000000000000000000000000000000000000000000000000000000000000
310
00000000000000000000000000000000000000000000000000000000000000000000000000000000000000000000000000000000000000000000000000000000000000000000000000000000000000000000000000000000000000000000000000000000000000000000000000000000000000000000000000000000000000
310
00000000000000000000000000000000000000000000000000000000000000000000000000000000000000000000000000000000000000000000000000000000000000000000000000000000000000000000000000000000000000000000000000000000000000000000000000000000000000000000000000000000000000
310
00000000000000000000000000000000000000000000000000000000000000000000000000000000000000000000000000000000000000000000000000000000000000000000000000000000000000000000000000000000000000000000000000000000000000000000000000000000000000000000000000000000000000
310
00000000000000000000000000000000000000000000000000000000000000000000000000000000000000000000000000000000000000000000000000000000000000000000000000000000000000000000000000000000000000000000000000000000000000000000000000000000000000000000000000000000000000
310
00000000000000000000000000000000000000000000000000000000000000000000000000000000000000000000000000000000000000000000000000000000000000000000000000000000000000000000000000000000000000000000000000000000000000000000000000000000000000000000000000000000000000
310
00000000000000000000000000000000000000000000000000000000000000000000000000000000000000000000000000000000000000000000000000000000000000000000000000000000000000000000000000000000000000000000000000000000000000000000000000000000000000000000000000000000000000
310
00000000000000000000000000000000000000000000000000000000000000000000000000000000000000000000000000000000000000000000000000000000000000000000000000000000000000000000000000000000000000000000000000000000000000000000000000000000000000000000000000000000000000
310
00000000000000000000000000000000000000000000000000000000000000000000000000000000000000000000000000000000000000000000000000000000000000000000000000000000000000000000000000000000000000000000000000000000000000000000000000000000000000000000000000000000000000
310
00000000000000000000000000000000000000000000000000000000000000000000000000000000000000000000000000000000000000000000000000000000000000000000000000000000000000000000000000000000000000000000000000000000000000000000000000000000000000000000000000000000000000
310
00000000000000000000000000000000000000000000000000000000000000000000000000000000000000000000000000000000000000000000000000000000000000000000000000000000000000000000000000000000000000000000000000000000000000000000000000000000000000000000000000000000000000
310
00000000000000000000000000000000000000000000000000000000000000000000000000000000000000000000000000000000000000000000000000000000000000000000000000000000000000000000000000000000000000000000000000000000000000000000000000000000000000000000000000000000000000
310
00000000000000000000000000000000000000000000000000000000000000000000000000000000000000000000000000000000000000000000000000000000000000000000000000000000000000000000000000000000000000000000000000000000000000000000000000000000000000000000000000000000000000
310
00000000000000000000000000000000000000000000000000000000000000000000000000000000000000000000000000000000000000000000000000000000000000000000000000000000000000000000000000000000000000000000000000000000000000000000000000000000000000000000000000000000000000
310
00000000000000000000000000000000000000000000000000000000000000000000000000000000000000000000000000000000000000000000000000000000000000000000000000000000000000000000000000000000000000000000000000000000000000000000000000000000000000000000000000000000000000
310
00000000000000000000000000000000000000000000000000000000000000000000000000000000000000000000000000000000000000000000000000000000000000000000000000000000000000000000000000000000000000000000000000000000000000000000000000000000000000000000000000000000000000
310
00000000000000000000000000000000000000000000000000000000000000000000000000000000000000000000000000000000000000000000000000000000000000000000000000000000000000000000000000000000000000000000000000000000000000000000000000000000000000000000000000000000000000
310
00000000000000000000000000000000000000000000000000000000000000000000000000000000000000000000000000000000000000000000000000000000000000000000000000000000000000000000000000000000000000000000000000000000000000000000000000000000000000000000000000000000000000
310
00000000000000000000000000000000000000000000000000000000000000000000000000000000000000000000000000000000000000000000000000000000000000000000000000000000000000000000000000000000000000000000000000000000000000000000000000000000000000000000000000000000000000
310
00000000000000000000000000000000000000000000000000000000000000000000000000000000000000000000000000000000000000000000000000000000000000000000000000000000000000000000000000000000000000000000000000000000000000000000000000000000000000000000000000000000000000
310
00000000000000000000000000000000000000000000000000000000000000000000000000000000000000000000000000000000000000000000000000000000000000000000000000000000000000000000000000000000000000000000000000000000000000000000000000000000000000000000000000000000000000
310
00000000000000000000000000000000000000000000000000000000000000000000000000000000000000000000000000000000000000000000000000000000000000000000000000000000000000000000000000000000000000000000000000000000000000000000000000000000000000000000000000000000000000
310
00000000000000000000000000000000000000000000000000000000000000000000000000000000000000000000000000000000000000000000000000000000000000000000000000000000000000000000000000000000000000000000000000000000000000000000000000000000000000000000000000000000000000
310
00000000000000000000000000000000000000000000000000000000000000000000000000000000000000000000000000000000000000000000000000000000000000000000000000000000000000000000000000000000000000000000000000000000000000000000000000000000000000000000000000000000000000
310
00000000000000000000000000000000000000000000000000000000000000000000000000000000000000000000000000000000000000000000000000000000000000000000000000000000000000000000000000000000000000000000000000000000000000000000000000000000000000000000000000000000000000
310
00000000000000000000000000000000000000000000000000000000000000000000000000000000000000000000000000000000000000000000000000000000000000000000000000000000000000000000000000000000000000000000000000000000000000000000000000000000000000000000000000000000000000
310
00000000000000000000000000000000000000000000000000000000000000000000000000000000000000000000000000000000000000000000000000000000000000000000000000000000000000000000000000000000000000000000000000000000000000000000000000000000000000000000000000000000000000
310
00000000000000000000000000000000000000000000000000000000000000000000000000000000000000000000000000000000000000000000000000000000000000000000000000000000000000000000000000000000000000000000000000000000000000000000000000000000000000000000000000000000000000
310
00000000000000000000000000000000000000000000000000000000000000000000000000000000000000000000000000000000000000000000000000000000000000000000000000000000000000000000000000000000000000000000000000000000000000000000000000000000000000000000000000000000000000
310
00000000000000000000000000000000000000000000000000000000000000000000000000000000000000000000000000000000000000000000000000000000000000000000000000000000000000000000000000000000000000000000000000000000000000000000000000000000000000000000000000000000000000
310
00000000000000000000000000000000000000000000000000000000000000000000000000000000000000000000000000000000000000000000000000000000000000000000000000000000000000000000000000000000000000000000000000000000000000000000000000000000000000000000000000000000000000
310
00000000000000000000000000000000000000000000000000000000000000000000000000000000000000000000000000000000000000000000000000000000000000000000000000000000000000000000000000000000000000000000000000000000000000000000000000000000000000000000000000000000000000
310
00000000000000000000000000000000000000000000000000000000000000000000000000000000000000000000000000000000000000000000000000000000000000000000000000000000000000000000000000000000000000000000000000000000000000000000000000000000000000000000000000000000000000
310
00000000000000000000000000000000000000000000000000000000000000000000000000000000000000000000000000000000000000000000000000000000000000000000000000000000000000000000000000000000000000000000000000000000000000000000000000000000000000000000000000000000000000
310
00000000000000000000000000000000000000000000000000000000000000000000000000000000000000000000000000000000000000000000000000000000000000000000000000000000000000000000000000000000000000000000000000000000000000000000000000000000000000000000000000000000000000
310
00000000000000000000000000000000000000000000000000000000000000000000000000000000000000000000000000000000000000000000000000000000000000000000000000000000000000000000000000000000000000000000000000000000000000000000000000000000000000000000000000000000000000
310
00000000000000000000000000000000000000000000000000000000000000000000000000000000000000000000000000000000000000000000000000000000000000000000000000000000000000000000000000000000000000000000000000000000000000000000000000000000000000000000000000000000000000
310
00000000000000000000000000000000000000000000000000000000000000000000000000000000000000000000000000000000000000000000000000000000000000000000000000000000000000000000000000000000000000000000000000000000000000000000000000000000000000000000000000000000000000
310
00000000000000000000000000000000000000000000000000000000000000000000000000000000000000000000000000000000000000000000000000000000000000000000000000000000000000000000000000000000000000000000000000000000000000000000000000000000000000000000000000000000000000
310
00000000000000000000000000000000000000000000000000000000000000000000000000000000000000000000000000000000000000000000000000000000000000000000000000000000000000000000000000000000000000000000000000000000000000000000000000000000000000000000000000000000000000
310
00000000000000000000000000000000000000000000000000000000000000000000000000000000000000000000000000000000000000000000000000000000000000000000000000000000000000000000000000000000000000000000000000000000000000000000000000000000000000000000000000000000000000
310
00000000000000000000000000000000000000000000000000000000000000000000000000000000000000000000000000000000000000000000000000000000000000000000000000000000000000000000000000000000000000000000000000000000000000000000000000000000000000000000000000000000000000
310
00000000000000000000000000000000000000000000000000000000000000000000000000000000000000000000000000000000000000000000000000000000000000000000000000000000000000000000000000000000000000000000000000000000000000000000000000000000000000000000000000000000000000
310
00000000000000000000000000000000000000000000000000000000000000000000000000000000000000000000000000000000000000000000000000000000000000000000000000000000000000000000000000000000000000000000000000000000000000000000000000000000000000000000000000000000000000
310
00000000000000000000000000000000000000000000000000000000000000000000000000000000000000000000000000000000000000000000000000000000000000000000000000000000000000000000000000000000000000000000000000000000000000000000000000000000000000000000000000000000000000
310
00000000000000000000000000000000000000000000000000000000000000000000000000000000000000000000000000000000000000000000000000000000000000000000000000000000000000000000000000000000000000000000000000000000000000000000000000000000000000000000000000000000000000
310
00000000000000000000000000000000000000000000000000000000000000000000000000000000000000000000000000000000000000000000000000000000000000000000000000000000000000000000000000000000000000000000000000000000000000000000000000000000000000000000000000000000000000
310
00000000000000000000000000000000000000000000000000000000000000000000000000000000000000000000000000000000000000000000000000000000000000000000000000000000000000000000000000000000000000000000000000000000000000000000000000000000000000000000000000000000000000
310
00000000000000000000000000000000000000000000000000000000000000000000000000000000000000000000000000000000000000000000000000000000000000000000000000000000000000000000000000000000000000000000000000000000000000000000000000000000000000000000000000000000000000
310
00000000000000000000000000000000000000000000000000000000000000000000000000000000000000000000000000000000000000000000000000000000000000000000000000000000000000000000000000000000000000000000000000000000000000000000000000000000000000000000000000000000000000
310
00000000000000000000000000000000000000000000000000000000000000000000000000000000000000000000000000000000000000000000000000000000000000000000000000000000000000000000000000000000000000000000000000000000000000000000000000000000000000000000000000000000000000
310
00000000000000000000000000000000000000000000000000000000000000000000000000000000000000000000000000000000000000000000000000000000000000000000000000000000000000000000000000000000000000000000000000000000000000000000000000000000000000000000000000000000000000
310
00000000000000000000000000000000000000000000000000000000000000000000000000000000000000000000000000000000000000000000000000000000000000000000000000000000000000000000000000000000000000000000000000000000000000000000000000000000000000000000000000000000000000
310
00000000000000000000000000000000000000000000000000000000000000000000000000000000000000000000000000000000000000000000000000000000000000000000000000000000000000000000000000000000000000000000000000000000000000000000000000000000000000000000000000000000000000
310
00000000000000000000000000000000000000000000000000000000000000000000000000000000000000000000000000000000000000000000000000000000000000000000000000000000000000000000000000000000000000000000000000000000000000000000000000000000000000000000000000000000000000
310
00000000000000000000000000000000000000000000000000000000000000000000000000000000000000000000000000000000000000000000000000000000000000000000000000000000000000000000000000000000000000000000000000000000000000000000000000000000000000000000000000000000000000
310
00000000000000000000000000000000000000000000000000000000000000000000000000000000000000000000000000000000000000000000000000000000000000000000000000000000000000000000000000000000000000000000000000000000000000000000000000000000000000000000000000000000000000
310
00000000000000000000000000000000000000000000000000000000000000000000000000000000000000000000000000000000000000000000000000000000000000000000000000000000000000000000000000000000000000000000000000000000000000000000000000000000000000000000000000000000000000
310
00000000000000000000000000000000000000000000000000000000000000000000000000000000000000000000000000000000000000000000000000000000000000000000000000000000000000000000000000000000000000000000000000000000000000000000000000000000000000000000000000000000000000
310
00000000000000000000000000000000000000000000000000000000000000000000000000000000000000000000000000000000000000000000000000000000000000000000000000000000000000000000000000000000000000000000000000000000000000000000000000000000000000000000000000000000000000
310
00000000000000000000000000000000000000000000000000000000000000000000000000000000000000000000000000000000000000000000000000000000000000000000000000000000000000000000000000000000000000000000000000000000000000000000000000000000000000000000000000000000000000
310
00000000000000000000000000000000000000000000000000000000000000000000000000000000000000000000000000000000000000000000000000000000000000000000000000000000000000000000000000000000000000000000000000000000000000000000000000000000000000000000000000F5F5F5F5F5F5
310
F5F5F5F5F50000000000000000000000000000000000000000000000000000000000000000000000000000000000000000000000000000000000000000000000F5F5F5F5F5F5F5F500000000000000000000000000000000000000000000000000000000000000000000000000000000000000000000000000000000000000
310
000000000000000000000000000000000000000000000000000000000000000000000000000000000000000000000000000000000000000000000000000000000000000000000000000000000000000000000000000000000000000000000000000000000000000000000000000000000000000000000000000000F5F5F5F5
310
F5F5F5F5F5F5F50000000000000000000000000000000000000000000000000000000000000000000000000000000000000000000000000000000000000000000000000000000000000000000000000000000000000000000000000000000000000000000000F5F5F5F5000000000000000000000000000000000000000000
310
00000000000000000000000000000000000000000000000000000000000000000000000000000000000000000000000000000000000000000000000000000000000000000000000000000000000000000000000000000000000000000000000000000000000000000000000000000000000000000000000000000000000000
310
0000000000000000000000000000000000000000F50000000000000000000000000000F5F5F5F50000000000000000000000000000000000000000000000000000000000000000000000000000000000000000000000000000000000000000000000F5F5F5F5F5F5F5F5F5F5F5F5F5F5F5F5F5F50000000000000000000000
310
00000000000000000000000000000000000000000000000000000000000000000000000000000000000000000000000000000000000000000000000000000000000000000000000000000000000000000000000000000000000000000000000000000000000000000000000000000000000000000000000000000000000000
310
00000000000000000000000000000000000000000000F5000000000000000000F500000000F5F5F5F50000000000F50000000000000000000000000000000000000000000000000000000000000000000000000000000000000000000000000000000000F5F5F5000000F5F5F5F50000000000F5F5F5000000000000000000
310
00000000000000000000000000000000000000000000000000000000000000000000000000000000000000000000000000000000000000000000000000000000000000000000000000000000000000000000000000000000000000000000000000000000000000000000000000000000000000000000000000000000000000
310
000000000000000000000000000000000000000000000000F50000000000000000F5F5F5F5F5F5F5F5F5F5F5F5F5F5F5F5F500000000000000000000000000000000000000000000000000000000000000000000000000000000000000000000000000000000F500000000000000000000000000000000F500000000000000
310
00000000000000000000000000000000000000000000000000000000000000000000000000000000000000000000000000000000000000000000000000000000000000000000000000000000000000000000000000000000000000000000000000000000000000000000000000000000000000000000000000F5F5F5F5F5F5
310
F5F5F5F5F5F5F5F5F5F5F5F5F5F5F5F5F5F5F5F5F5F5F5F5F5F5F5F5F5F5F5F5F5F5F5F5F5F5F5F5F5F5F5F5F5F5F5F5F5F5F5F5F5F5F5F5F5F5F5F5F5F5F5F5F5F5F5F5F5F5F5F5F5F5F5F5F5F5F5F5F5F5F5F5F5F5F5F5F5F5F5F5F5F5F5F5F5F5F5F5F5F5F5F5F5F5F5F5F5F5F5F5F5F5F5F5F5F5F5F5F5F5F5F5F5F5F5
310
F5F5F5F5F5F5F5000000000000000000000000000000000000000000000000000000000000000000000000000000000000000000000000000000000000000000000000000000000000000000000000000000000000000000000000000000000000000000000000000000000000000000000000000000000000000000000000
310
00000000000000F5F500000000F5F500F5F50000000000F5F5F5000000000000000000F5F5F500F5F5000000F5F5F5000000F5F500F5F5F5000000000000F500000000000000000000000000F5F5F5000000F5F5F5F5F50000000000F5F5F500F5F500000000000000F5F5F5F5F5F5000000F5F5000000F5F500F5F5F50000
310
F5000000000000000000000000000000000000000000000000000000000000000000000000000000000000000000000000000000000000000000000000000000000000000000000000000000000000000000000000000000000000000000000000000000000000000000000000000000000000000000000000000000000000
310
000000000000000000F5F5F5F5F5F5F5F5F5F5F50000F5F5F5F5F5F500F5F5F5000000000000F5F5F5F5F5F5F5F5F5F5F5F5F5F5F5F5F5F5F500000000000000F500000000000000000000000000F5F5F5F5F5F5F5F5F5F5F5F50000F5F5F5F5F500F5F500000000000000F5F5F5F5F5F5F5F5F5F5F5F5F5F5F5F5F5F5F5F5
310
0000F500000000000000000000000000000000000000000000000000000000000000000000000000000000000000000000000000000000000000000000000000000000000000000000000000000000000000000000000000000000000000000000000000000000000000000000000000000000000000000000000000000000
310
000000000000000000000000F5F5F5F5F5F5F5F5F5F5F5F5F5F5F5F5F50000F5F5F500000000000000F5F5F5F5F5F5F5F5F5F5F5F5F5F5F5F5F50000000000000000F50000000000000000000000000000F5F5F5F500F5F5F5F5F5F5F5F5F5F5F5F50000F5000000000000000000F5F5F5F5F5F5F5F5F5F500F5F5F5F5F5F5
310
F5000000F50000000000000000000000000000000000000000000000000000000000000000000000000000000000000000000000000000000000000000000000000000000000000000000000000000000000000000000000000000000000000000000000000000000000000000000000000000000000000000000000000000
310
000000000000000000000000000000000000F5F5F5F5F5F5F5F5F5000000000000F5F5F5000000000000000000000000F5F5F5F5F5F5F500000000000000000000000000F5000000000000000000000000000000000000F5F5F5F5F5F5F5F5F50000000000F5F5F50000000000000000000000000000F5F5F5F5F5F5000000
310
000000000000F5000000000000000000000000000000000000000000000000000000000000000000000000000000000000000000000000000000000000000000000000000000000000000000000000000000000000000000000000000000000000000000000000000000000000000000000000000000000000000000000000
310
000000000000000000000000000000000000000000000000F5F5000000000000000000F5F5F50000000000000000000000000000F500F5000000000000000000000000000000F50000000000000000000000000000000000F5F5F5F5F5F5F5F5F5F5F5F5F50000F5F5F500000000000000000000F5F5F5F5F5F5F5F5F5F5F5
310
F5F5F50000000000F500000000000000000000000000000000000000000000000000000000000000000000000000000000000000000000000000000000000000000000000000000000000000000000000000000000000000000000000000000000000000000000000000000000000000000000000000000000000000000000
310
0000000000000000000000000000000000000000000000000000F5F5000000000000000000F5F5F50000000000000000000000000000F500F5000000000000000000000000000000F50000000000000000000000000000000000F5F5F5F5F5F5F5F5F5F5F5F5F50000F5F5F500000000000000000000F5F5F5F5F5F5F5F5F5
310
F5F5F5F5000000000000F50000000000000000000000000000000000000000000000000000000000000000000000000000000000000000000000000000000000000000000000000000000000000000000000000000000000000000000000000000000000000000000000000000000000000000000000000000000000000000
310
000000000000000000000000000000000000000000000000000000F5F5F5F5F500000000000000F5F5F500000000000000000000F5F500F5F5F5F5F500F5F50000000000000000000000F500000000000000000000000000000000000000000000F5F50000000000000000F5F5F500000000000000000000000000000000F5
310
F50000000000000000000000F5000000000000000000000000000000000000000000000000000000000000000000000000000000000000000000000000000000000000000000000000000000000000000000000000000000000000000000000000000000000000000000000000000000000000000000000000000000000000
310
00000000000000000000000000000000000000000000000000F5F5F5F5F5F500F5F5F5F50000000000F5F5F500000000000000000000F5F5F5F5F5F5F5F5F5F5F500000000000000000000F5F500000000000000000000000000000000000000000000F5F50000000000000000F5F5F5000000000000000000000000000000
310
00F5F50000000000000000000000F500000000000000000000000000000000000000000000000000000000000000000000000000000000000000000000000000000000000000000000000000000000000000000000000000000000000000000000000000000000000000000000000000000000000000000000000000000000
310
0000000000000000000000000000000000000000000000000000F5F5F5F5F5F5F5F5F5F5F5F5F500000000F5F5F50000000000000000F5F5F5F5F5F5F5F5F5F5F5F5F5F5F50000000000000000F5F500000000000000000000000000000000000000000000F5F50000000000000000F5F5F500000000000000000000000000
310
000000F5F500000000000000000000F5F50000000000000000000000000000000000000000000000000000000000000000000000000000000000000000000000000000000000000000000000000000000000000000000000000000000000000000000000000000000000000000000000000000000000000000000000000000
310
00000000000000000000000000000000000000000000000000000000F5F5F5F5F5F5F5F5F5F5F5F5F5F5000000F5F5F500000000000000F5F5F5F5F5F5F5F5F5F5F5F5F5F5F5F5F500000000000000F5F500000000000000000000000000000000000000000000F5F50000000000000000F5F5F50000000000000000000000
310
0000000000F5F500000000000000000000F5F5000000000000000000000000000000000000000000000000000000000000000000000000000000000000000000000000000000000000000000000000000000000000000000000000000000000000000000000000000000000000000000000000000000000000000000000000
310
00000000000000000000000000000000000000000000000000000000000000F5F5F5F5F5F5F5F5F5F5F500F500000000000000000000000000F5F5F5F5F5F50000000000F5F5F5F5F5F500000000000000F5F5000000000000000000000000000000000000000000F5F5F5F5F5F50000000000F5F5F5000000000000000000
310
0000F5F5F5F5F5F5F5F5F5F5F5000000000000F5F500000000000000000000000000000000000000000000000000000000000000000000000000000000000000000000000000000000000000000000000000000000000000000000000000000000000000000000000000000000000000000000000000000000000000000000
310
000000000000000000000000000000000000000000000000F5F5F5F5F5F5000000F5F5F5F5F5F5F5F5F5F5F5F5F5F5F5F5F5F50000000000F5F5F5F5F5F5F5F5F5F5F5F5F5F5F5F5F5F5F5F500000000000000F5F500000000000000000000000000000000F5F5F5F5F5F5F5F5F5F5F5F500000000F5F5F500000000000000
310
00000000F5F5F5F5F5F5F5F5F5F5F5000000000000F5F5000000000000000000000000000000000000000000000000000000000000000000000000000000000000000000000000000000000000000000000000000000F5F500000000000000000000000000000000000000000000000000000000F5F5000000000000000000
310
0000000000000000000000000000000000000000000000000000F50000000000000000F5F5F5F500F5F500000000000000000000F50000000000F5F500F5F500F5F5F5F5F5F5F5F5F5F5F500F5F500000000000000F5F500000000000000000000000000000000F5F5F5F5F5F5F5F5F5F5F5F5F5F5000000F5000000000000
310
00000000F5F5F5F5F5F5F5F5F5F5F5F5F5F5F5F5000000F5F5000000000000000000000000000000000000000000000000000000000000000000000000000000000000000000000000000000000000000000000000000000F5F500000000000000000000000000000000000000000000000000000000F5F500000000000000
310
00000000000000000000000000000000000000000000000000000000F50000000000000000F5F5F5F500F5F500000000000000000000F50000000000F5F500F5F5F5F5F50000F500F50000F5F5F5F5F500000000000000F5F500000000000000000000000000000000F5F5F5F5F5F5F5F5F5F5F5F5F5F5F50000F5F5000000
310
000000000000F5F5F5F5F5F5F5F5F5F5F5F5F5F5F5F5000000F5F5000000000000000000000000000000000000000000000000000000000000000000000000000000000000000000000000000000000000000000000000F5F5F5F5F5F5F5F5F5F5F5F5F5F50000000000000000000000000000000000F5F5F5F5F5F5F5F5F5
310
F5F5F5F50000000000000000000000000000000000000000000000000000F50000000000000000F5F5F5F5F5F5F5F5000000000000000000F50000000000F5F500F5F5F5F500F5F5F5F5F5F5F500F5F5F5F500000000000000F5F50000000000000000000000000000000000F5F5F50000F5F500000000F5F5000000F5F500
310
0000000000000000F5F5F50000F5F5F5F5F50000F5F5F5F5000000F5F5000000000000000000000000000000000000000000000000000000000000000000000000000000000000000000000000000000000000000000000000F5000000000000000000000000F5F5000000000000000000000000000000F500000000000000
310
0000000000F5F500000000000000000000000000000000000000000000000000F5000000000000000000F5F5F5F5F5F5F5F5F500000000000000F50000000000F5F5F5F5F5F5F500F5F5000000F5F500F5F5F5F500000000000000F5F500000000000000000000F5F5F5F5000000F5F5F5F5F5F5F5F5F5F5F5F50000F5F5F5
310
F50000000000F5F5F5F5F5F5F5F5F5F5F5F5F5F5F5F5F5F5F5F5000000F5F5000000000000000000000000000000000000000000000000000000000000000000000000000000000000000000000000000000000000000000000000F5000000000000000000000000F5F5000000000000000000000000000000F50000000000
310
00000000000000F5F5000000000000000000000000000000000000000000000000F5F5F50000000000000000F5F5F500000000000000000000000000000000000000F500000000F5F500F5F5000000F5F500F5F5000000000000000000F5F500000000000000000000F5F50000000000F5F5F5F500F5F50000000000000000
310
0000000000000000F5000000F500F5F5F5F500000000F5F5F5F5F5F5000000F5F500000000000000000000000000000000000000000000000000000000000000000000000000000000000000000000000000000000000000000000F5F5F5000000000000000000000000F5F5F5000000000000000000000000F5F5F5000000
310
000000000000000000F5F5F50000000000000000000000000000000000000000000000F5F5F50000000000000000F5F5F5000000000000000000000000000000000000F5F5F5000000F5F50000F5F5F5F5F50000F5F500000000000000000000F500000000000000000000F5F500000000000000F5F500F5F5000000000000
310
00000000000000000000F50000F5F5F5F5F50000000000000000F5F5F5F5000000F5F500000000000000000000000000000000000000000000000000000000000000000000000000000000000000000000000000000000000000000000F500F5000000000000000000000000F500F5000000000000000000000000F500F500
310
0000000000000000000000F500F50000000000000000000000000000000000000000000000F5F5F50000000000000000F5F500000000000000000000000000000000000000F5F5F5000000F5F5000000000000000000F5F500000000000000000000F500000000000000000000F50000000000000000F5F5F5F5F5F5F5F500
310
000000000000000000000000F50000F5F5F5F5000000000000000000F5F5F5F5F50000F5F500000000000000000000000000000000000000000000000000000000000000000000000000000000000000000000000000000000000000000000F500F5000000000000000000000000F50000F50000000000000000000000F500
310
F5000000000000000000000000F50000F500000000000000000000000000000000000000000000F5F5F50000000000000000F5F500000000000000000000000000000000000000F5F5F5000000F5F5000000000000000000F5F500000000000000000000F5000000000000000000F5F5F500000000000000F5F5F5F5F5F5F5
310
F500000000000000000000000000F5F5F5F5F5F5F5000000000000000000F5F5F5F5F50000F5F5000000000000000000000000000000000000000000000000000000000000000000000000000000000000000000000000000000000000000000F5F5F5F5000000000000000000000000F50000F500000000000000000000F5
310
F5F5F5000000000000000000000000F50000F50000000000000000000000000000000000000000000000F5000000000000000000F5F500000000000000000000000000000000000000F5F5F5000000F5F5000000000000000000F5F500000000000000000000F5000000000000000000F5F5F500000000000000F5F5000000
310
00000000000000000000000000000000F50000000000F5000000000000000000F5F5000000000000F5000000000000000000000000000000000000000000000000000000000000000000000000000000000000000000000000000000000000000000F5F5F5F5000000000000000000000000F50000F5000000000000000000
310
00F5F5F5F5000000000000000000000000F50000F50000000000000000000000000000000000000000000000F50000000000000000F5F50000000000000000000000000000000000000000F5F5F5000000F5F5000000000000000000F5F500000000000000000000F5000000000000000000F5F5F5000000000000F5F50000
310
0000000000000000000000000000000000F5F5F500000000F5000000000000000000F5F5000000000000F500000000000000000000000000000000000000000000000000000000000000000000000000000000000000000000000000000000000000000000F500F5000000000000000000000000F500F50000000000000000
310
00000000F500F5000000000000000000000000F50000F50000000000000000000000000000000000000000000000F50000000000000000F5F50000000000000000000000000000000000000000F5F5F5000000F5F5000000000000000000F5F500000000000000000000F5000000000000000000F5F5F5000000000000F5F5
310
00000000000000000000000000000000000000F5F5F500000000F5000000000000000000F5F5000000000000F500000000000000000000000000000000000000000000000000000000000000000000000000000000000000000000000000000000000000000000F5F5F5F5F5F5F5F5000000F5F5F5F5F5F5F5000000000000
310
000000000000F5F5F5F5F5F5000000000000F5F5F5F5F5F5000000000000000000000000000000000000000000000000F50000000000000000F5F50000000000000000000000000000000000000000F5F5F5000000F5F5F5F50000000000F5F5F5F500000000000000000000F5000000000000000000F5F5F5000000000000
310
F5F500000000000000000000000000000000000000F5F5F500000000F5000000000000000000F5F5000000000000F500000000000000000000000000000000000000000000000000000000000000000000000000000000000000000000000000000000000000000000000000F5000000F5F5F5F5000000F500000000000000
310
0000000000000000000000F500F5F5F5F5F5F5F5F500F5F50000000000000000000000000000000000000000000000000000F5000000000000F5F5F5F50000000000000000000000000000000000000000F5F5F5000000F5F5F5F5F5F5F5F5F5F5F5F5F500000000000000000000F500000000000000000000F50000000000
310
0000F50000000000000000000000000000000000000000F5F5F500000000F5F50000000000000000F5F5000000000000F500000000000000000000000000000000000000000000000000000000000000000000000000000000000000000000000000000000000000000000000000F5F5F5F50000000000F5F5F5F5F5000000
310
00000000000000000000000000F5F5F5F50000000000F5F5F5F5F5000000000000000000000000000000000000000000000000F5F5F5F5F5F5F500F5F500000000000000000000000000000000000000000000F5F5F5000000F500000000F5F5F500000000F500000000000000F5F5F5F500000000000000000000F5000000
310
000000F5F50000000000000000000000000000000000000000F5F5F500000000F5F50000000000000000F5F5000000000000F500000000000000000000000000000000000000000000000000000000000000000000000000000000000000000000000000000000000000000000000000F5F5F500F5F5F5F5F5F5F5F5F5F500
310
000000000000000000000000000000F5F500F5F5F5F5F5F5F5F5F5F5F5000000000000000000000000000000000000000000000000F5F5F50000000000F5F500F50000000000000000000000000000000000000000000000000000F50000F500F5F5F500F50000F5000000000000000000000000000000000000000000F500
310
0000000000F5F50000000000000000000000000000000000000000F5F5F500000000F5F50000000000000000F5F5000000000000F5000000000000000000000000000000000000000000000000000000000000000000000000000000000000000000000000000000000000000000000000000000F5F5F5F5C3F5F5F5000000
310
00000000000000000000000000000000000000F5F5F5F5C3F5F5F50000F5F5000000000000000000000000000000000000000000000000F5F5F5000000000000F5F5F5F500000000000000000000000000000000000000000000000000F50000F5F5F5F5F5F5F50000F5000000000000000000000000000000000000000000
310
F5F50000000000F5F50000000000000000000000000000000000000000F5F5F500000000F5F5F5F5F5F5F5F5F5F5F5F5000000000000F5000000000000000000000000000000000000000000000000000000000000000000000000000000000000000000000000000000000000000000000000000000F5F500000000000000
310
000000000000000000000000000000000000000000F5F5F5F5F500000000000000000000000000000000000000000000000000000000000000F5F5F5000000000000F5F500F5F5000000000000000000000000000000000000000000000000F50000F50000000000F50000F500000000000000000000000000000000000000
310
0000F5F5F5F50000F5F5F50000000000000000000000000000000000000000F5F5F500000000F5F5F5F5F5F5F5F5F5F5F5000000F5F5F5F5F5000000000000000000000000000000000000000000000000000000000000000000000000000000000000000000000000000000000000000000000000000000F5F50000000000
310
0000000000000000000000000000000000000000000000F5F50000000000000000000000000000000000000000000000000000000000000000000000F5F5F5F5F5F50000000000F5F5000000000000000000000000000000000000000000000000F50000F50000000000F50000F50000000000000000000000000000000000
310
000000000000000000000000000000000000000000000000000000000000000000F5F5F5000000F50000000000000000000000F50000000000000000000000000000000000000000000000000000000000000000000000000000000000000000000000000000000000000000000000000000000000000000F5F5F5F5000000
310
00000000000000000000000000000000000000000000F5F5F5F5F5F5F5F50000000000000000000000000000000000000000000000000000000000000000F5000000000000000000F5F500000000000000000000000000000000000000000000000000F50000F5F5F5F5F5F5F50000F5000000000000000000000000000000
310
0000000000000000000000000000000000000000000000000000000000000000000000000000000000F50000000000000000000000F50000000000000000000000000000000000000000000000000000000000000000000000000000000000000000000000000000000000000000000000000000000000000000F5F5F5F500
310
000000000000000000000000000000000000000000000000F5F5F5F5F5F5F5F50000000000000000000000000000000000000000000000000000000000000000F5000000000000000000000000000000000000000000000000000000000000000000000000F50000F5F5F5F5F500F50000F500000000000000000000000000
310
00000000000000000000000000000000000000000000000000000000000000000000000000000000000000F50000000000000000000000F50000000000000000000000000000000000000000000000000000000000000000000000000000000000000000000000000000000000000000000000000000000000000000000000
310
000000000000000000000000000000000000000000000000000000000000000000000000000000000000000000000000000000000000000000000000000000000000F50000000000000000000000000000000000000000000000000000000000000000000000F5F5F5F5F5F5F5F5F500F5F5F5F5F500000000000000000000
310
000000000000000000000000000000000000000000000000000000000000000000000000000000000000000000F5000000F5F5F5F500000000F5000000000000000000000000000000000000000000000000000000000000000000000000000000000000000000000000000000000000000000000000000000000000000000
310
0000000000000000000000000000000000000000000000000000000000000000000000000000000000000000000000000000000000000000000000000000000000000000F5000000000000000000000000000000000000000000000000000000000000000000000000F5000000F5F5F5F500000000F5000000000000000000
310
0000000000000000000000000000000000000000000000000000000000000000000000000000000000000000000000F500F500F5F5F5F50000F500F500000000000000000000000000000000000000000000000000000000000000000000000000000000000000000000000000000000000000000000000000000000000000
310
0000000000000000000000000000000000000000000000000000000000000000000000000000000000000000000000000000000000000000000000000000000000000000000000000000000000000000000000000000000000000000000000000000000000000000000000F500F500F5F5F5F50000F500F500000000000000
310
00000000000000000000000000000000000000000000000000000000000000000000000000000000000000000000000000F5F5F5F5F5F5F5F5F5F5F5F5F50000000000000000000000000000000000000000000000000000000000000000000000000000000000000000000000000000000000000000000000000000000000
310
00000000000000000000000000000000000000000000000000000000000000000000000000000000000000000000000000000000000000000000000000000000000000000000000000000000000000000000000000000000000000000000000000000000000000000000000000F5F5F5F5F5F5F5F5F5F5F5F5F50000000000
310
00000000000000000000000000000000000000000000000000000000000000000000000000000000000000000000000000000000000000000000000000000000000000000000000000000000000000000000000000000000000000000000000000000000000000000000000000000000000000000000000000000000000000
310
00000000000000000000000000000000000000000000000000000000000000000000000000000000000000000000000000000000000000000000000000000000000000000000000000000000000000000000000000000000000000000000000000000000000000000000000000000000000000000000000000000000000000
310
00000000000000000000000000000000000000000000000000000000000000000000000000000000000000000000000000000000000000000000000000000000000000000000000000000000000000000000000000000000000000000000000000000000000000000000000000000000000000000000000000000000000000
310
00000000000000000000000000000000000000000000000000000000000000000000000000000000000000000000000000000000000000000000000000000000000000000000000000000000000000000000000000000000000000000000000000000000000000000000000000000000000000000000000000000000000000
310
00000000000000000000000000000000000000000000000000000000000000000000000000000000000000000000000000000000000000000000000000000000000000000000000000000000000000000000000000000000000000000000000000000000000000000000000000000000000000000000000000000000000000
310
00000000000000000000000000000000000000000000000000000000000000000000000000000000000000000000000000000000000000000000000000000000000000000000000000000000000000000000000000000000000000000000000000000000000000000000000000000000000000000000000000000000000000
310
00000000000000000000000000000000000000000000000000000000000000000000000000000000000000000000000000000000000000000000000000000000000000000000000000000000000000000000000000000000000000000000000000000000000000000000000000000000000000000000000000000000000000
310
00000000000000000000000000000000000000000000000000000000000000000000000000000000000000000000000000000000000000000000000000000000000000000000000000000000000000000000000000000000000000000000000000000000000000000000000000000000000000000000000000000000000000
310
00000000000000000000000000000000000000000000000000000000000000000000000000000000000000000000000000000000000000000000000000000000000000000000000000000000000000000000000000000000000000000000000000000000000000000000000000000000000000000000000000000000000000
310
00000000000000000000000000000000000000000000000000000000000000000000000000000000000000000000000000000000000000000000000000000000000000000000000000000000000000000000000000000000000000000000000000000000000000000000000000000000000000000000000000000000000000
310
00000000000000000000000000000000000000000000000000000000000000000000000000000000000000000000000000000000000000000000000000000000000000000000000000000000000000000000000000000000000000000000000000000000000000000000000000000000000000000000000000000000000000
310
0000000000000000000000000000F5F5F5F5F5F5F5F5F5F5F5F5F5F5F500000000000000000000000000000000000000000000000000000000000000000000000000000000000000000000000000000000000000000000000000F5F5F5F5F5F5F5F5F5F5F5F5F5F5F5F5F50000000000000000000000000000000000000000
310
00000000000000000000000000000000000000000000000000000000000000000000000000000000000000000000000000000000000000000000000000000000000000000000000000000000000000000000000000000000000000000000000000000000000000000000000000000000000000000000000000000000000000
310
00000000000000000000000000000000F5F5F5F5F5F5F5F5F5F5F5F5F5F5F500000000000000000000000000000000000000000000000000000000000000000000000000000000000000000000000000000000000000000000000000F5F5F5F5F5F5F5F5F5F5F5F5F5F5F5F5F5000000000000000000000000000000000000
310
00000000000000000000000000000000000000000000000000000000000000000000000000000000000000000000000000000000000000000000000000000000000000000000000000000000000000000000000000000000000000000000000000000000000000000000000000000000000000000000000000000000000000
310
000000000000000000000000000000000000F5F5F5F5F5F5F5F5F5F5F5F5F5F5F500000000000000000000000000000000000000000000000000000000000000000000000000000000000000000000000000000000000000000000000000F5F5F5F5F5F5F5F5F5F5F5F5F5F5F5F5F500000000000000000000000000000000
310
00000000000000000000000000000000000000000000000000000000000000000000000000000000000000000000000000000000000000000000000000000000000000000000000000000000000000000000000000000000000000000000000000000000000000000000000000000000000000000000000000000000000000
310
0000000000000000000000000000000000000000F5F5F5F5F5F5F5F5F500000000000000000000000000000000000000000000000000000000000000000000000000000000000000000000000000000000000000000000000000000000000000F5F5F5F5F5F5F5F5F500000000000000000000000000000000000000000000
310
00000000000000000000000000000000000000000000000000000000000000000000000000000000000000000000000000000000000000000000000000000000000000000000000000000000000000000000000000000000000000000000000000000000000000000000000000000000000000000000000000000000000000
310
00000000000000000000000000000000000000000000F5F5F5F5F5F5F5F5F500000000000000000000000000000000000000000000000000000000000000000000000000000000000000000000000000000000000000000000000000000000000000F5F5F5F5F5F5F5F5F50000000000000000000000000000000000000000
310
00000000000000000000000000000000000000000000000000000000000000000000000000000000000000000000000000000000000000000000000000000000000000000000000000000000000000000000000000000000000000000000000000000000000000000000000000000000000000000000000000000000000000
310
000000000000000000000000000000000000000000000000F5F5F5F5F5F5F5F5F500000000000000000000000000000000000000000000000000000000000000000000000000000000000000000000000000000000000000000000000000000000000000F5F5F5F5F5F5F5F5F5000000000000000000000000000000000000
310
00000000000000000000000000000000000000000000000000000000000000000000000000000000000000000000000000000000000000000000000000000000000000000000000000000000000000000000000000000000000000000000000000000000000000000000000000000000000000000000000000000000000000
310
00000000000000000000000000000000000000000000000000000000000000000000000000000000000000000000000000000000000000000000000000000000000000000000000000000000000000000000000000000000000000000000000000000000000000000000000000000000000000000000000000000000000000
310
00000000000000000000000000000000000000000000000000000000000000000000000000000000000000000000000000000000000000000000000000000000000000000000000000000000000000000000000000000000000000000000000000000000000000000000000000000000000000000000000000000000000000
310
00000000000000000000000000000000000000000000000000000000000000000000000000000000000000000000000000000000000000000000000000000000000000000000000000000000000000000000000000000000000000000000000000000000000000000000000000000000000000000000000000000000000000
310
00000000000000000000000000000000000000000000000000000000000000000000000000000000000000000000000000000000000000000000000000000000000000000000000000000000000000000000000000000000000000000000000000000000000000000000000000000000000000000000000000000000000000
310
00000000000000000000000000000000000000000000000000000000000000000000000000000000000000000000000000000000000000000000000000000000000000000000000000000000000000000000000000000000000000000000000000000000000000000000000000000000000000000000000000000000000000
310
00000000000000000000000000000000000000000000000000000000000000000000000000000000000000000000000000000000000000000000000000000000000000000000000000000000000000000000000000000000000000000000000000000000000000000000000000000000000000000000000000000000000000
310
00000000000000000000000000000000000000000000000000000000000000000000000000000000000000000000000000000000000000000000000000000000000000000000000000000000000000000000000000000000000000000000000000000000000000000000000000000000000000000000000000000000000000
310
00000000000000000000000000000000000000000000000000000000000000000000000000000000000000000000000000000000000000000000000000000000000000000000000000000000000000000000000000000000000000000000000000000000000000000000000000000000000000000000000000000000000000
310
00000000000000000000000000000000000000000000000000000000000000000000000000000000000000000000000000000000000000000000000000000000000000000000000000000000000000000000000000000000000000000000000000000000000000000000000000000000000000000000000000000000000000
310
00000000000000000000000000000000000000000000000000000000000000000000000000000000000000000000000000000000000000000000000000000000000000000000000000000000000000000000000000000000000000000000000000000000000000000000000000000000000000000000000000000000000000
310
00000000000000000000000000000000000000000000000000000000000000000000000000000000000000000000000000000000000000000000000000000000000000000000000000000000000000000000000000000000000000000000000000000000000000000000000000000000000000000000000000000000000000
310
00000000000000000000000000000000000000000000000000000000000000000000000000000000000000000000000000000000000000000000000000000000000000000000000000000000000000000000000000000000000000000000000000000000000000000000000000000000000000000000000000000000000000
310
00000000000000000000000000000000000000000000000000000000000000000000000000000000000000000000000000000000000000000000000000000000000000000000000000000000000000000000000000000000000000000000000000000000000000000000000000000000000000000000000000000000000000
310
00000000000000000000000000000000000000000000000000000000000000000000000000000000000000000000000000000000000000000000000000000000000000000000000000000000000000000000000000000000000000000000000000000000000000000000000000000000000000000000000000000000000000
310
00000000000000000000000000000000000000000000000000000000000000000000000000000000000000000000000000000000000000000000000000000000000000000000000000000000000000000000000000000000000000000000000000000000000000000000000000000000000000000000000000000000000000
310
00000000000000000000000000000000000000000000000000000000000000000000000000000000000000000000000000000000000000000000000000000000000000000000000000000000000000000000000000000000000000000000000000000000000000000000000000000000000000000000000000000000000000
310
00000000000000000000000000000000000000000000000000000000000000000000000000000000000000000000000000000000000000000000000000000000000000000000000000000000000000000000000000000000000000000000000000000000000000000000000000000000000000000000000000000000000000
310
00000000000000000000000000000000000000000000000000000000000000000000000000000000000000000000000000000000000000000000000000000000000000000000000000000000000000000000000000000000000000000000000000000000000000000000000000000000000000000000000000000000000000
310
00000000000000000000000000000000000000000000000000000000000000000000000000000000000000000000000000000000000000000000000000000000000000000000000000000000000000000000000000000000000000000000000000000000000000000000000000000000000000000000000000000000000000
310
00000000000000000000000000000000000000000000000000000000000000000000000000000000000000000000000000000000000000000000000000000000000000000000000000000000000000000000000000000000000000000000000000000000000000000000000000000000000000000000000000000000000000
310
00000000000000000000000000000000000000000000000000000000000000000000000000000000000000000000000000000000000000000000000000000000000000000000000000000000000000000000000000000000000000000000000000000000000000000000000000000000000000000000000000000000000000
310
00000000000000000000000000000000000000000000000000000000000000000000000000000000000000000000000000000000000000000000000000000000000000000000000000000000000000000000000000000000000000000000000000000000000000000000000000000000000000000000000000000000000000
310
00000000000000000000000000000000000000000000000000000000000000000000000000000000000000000000000000000000000000000000000000000000000000000000000000000000000000000000000000000000000000000000000000000000000000000000000000000000000000000000000000000000000000
310
00000000000000000000000000000000000000000000000000000000000000000000000000000000000000000000000000000000000000000000000000000000000000000000000000000000000000000000000000000000000000000000000000000000000000000000000000000000000000000000000000000000000000
310
00000000000000000000000000000000000000000000000000000000000000000000000000000000000000000000000000000000000000000000000000000000000000000000000000000000000000000000000000000000000000000000000000000000000000000000000000000000000000000000000000000000000000
310
00000000000000000000000000000000000000000000000000000000000000000000000000000000000000000000000000000000000000000000000000000000000000000000000000000000000000000000000000000000000000000000000000000000000000000000000000000000000000000000000000000000000000
310
00000000000000000000000000000000000000000000000000000000000000000000000000000000000000000000000000000000000000000000000000000000000000000000000000000000000000000000000000000000000000000000000000000000000000000000000000000000000000000000000000000000000000
310
00000000000000000000000000000000000000000000000000000000000000000000000000000000000000000000000000000000000000000000000000000000000000000000000000000000000000000000000000000000000000000000000000000000000000000000000000000000000000000000000000000000000000
310
00000000000000000000000000000000000000000000000000000000000000000000000000000000000000000000000000000000000000000000000000000000000000000000000000000000000000000000000000000000000000000000000000000000000000000000000000000000000000000000000000000000000000
310
00000000000000000000000000000000000000000000000000000000000000000000000000000000000000000000000000000000000000000000000000000000000000000000000000000000000000000000000000000000000000000000000000000000000000000000000000000000000000000000000000000000000000
310
00000000000000000000000000000000000000000000000000000000000000000000000000000000000000000000000000000000000000000000000000000000000000000000000000000000000000000000000000000000000000000000000000000000000000000000000000000000000000000000000000000000000000
310
00000000000000000000000000000000000000000000000000000000000000000000000000000000000000000000000000000000000000000000000000000000000000000000000000000000000000000000000000000000000000000000000000000000000000000000000000000000000000000000000000000000000000
310
00000000000000000000000000000000000000000000000000000000000000000000000000000000000000000000000000000000000000000000000000000000000000000000000000000000000000000000000000000000000000000000000000000000000000000000000000000000000000000000000000000000000000
310
00000000000000000000000000000000000000000000000000000000000000000000000000000000000000000000000000000000000000000000000000000000000000000000000000000000000000000000000000000000000000000000000000000000000000000000000000000000000000000000000000000000000000
310
00000000000000000000000000000000000000000000000000000000000000000000000000000000000000000000000000000000000000000000000000000000000000000000000000000000000000000000000000000000000000000000000000000000000000000000000000000000000000000000000000000000000000
310
00000000000000000000000000000000000000000000000000000000000000000000000000000000000000000000000000000000000000000000000000000000000000000000000000000000000000000000000000000000000000000000000000000000000000000000000000000000000000000000000000000000000000
310
00000000000000000000000000000000000000000000000000000000000000000000000000000000000000000000000000000000000000000000000000000000000000000000000000000000000000000000000000000000000000000000000000000000000000000000000000000000000000000000000000000000000000
310
00000000000000000000000000000000000000000000000000000000000000000000000000000000000000000000000000000000000000000000000000000000000000000000000000000000000000000000000000000000000000000000000000000000000000000000000000000000000000000000000000000000000000
310
00000000000000000000000000000000000000000000000000000000000000000000000000000000000000000000000000000000000000000000000000000000000000000000000000000000000000000000000000000000000000000000000000000000000000000000000000000000000000000000000000000000000000
310
00000000000000000000000000000000000000000000000000000000000000000000000000000000000000000000000000000000000000000000000000000000000000000000000000000000000000000000000000000000000000000000000000000000000000000000000000000000000000000000000000000000000000
310
0000000000000000000000000000
  0
XRECORD
  5
16602
102
{ACAD_REACTORS
330
16601
102
}
330
16601
100
AcDbXrecord
280
     1
102
ACAD_ROUNDTRIP_2012_MLEADER_STYLE
298
     1
  0
XRECORD
  5
16604
102
{ACAD_REACTORS
330
16603
102
}
330
16603
100
AcDbXrecord
280
     1
102
DISPLAYNAME
  1
Metric50
102
FLAGS
 90
        0
  0
ACAD_PROXY_OBJECT
  5
165C3
102
{ACAD_REACTORS
330
102D2
102
}
330
102D2
100
AcDbProxyObject
 90
      499
 91
      516
 95
    65563
 70
     0
 96
      324
311
9065F005400490054004C0045009075F004800450041004400450052009055F004400410054004100F
 93
     5100
310
40D054060020000020000003200101A0000800029416000000304000000000000001840404000000000000F83F0000000000003E0FC000000000000F83F0000000000003E0FC0AD7A3703D0AC73F02B5E8DC0F42B1CFD0640640600000030400FEFFFFFF80AD7A3703D0AA73F40A40600000030400FEFFFFFF80AD7A3703D0
310
AA73F41240600000030400FEFFFFFF80AD7A3703D0AA73F42240600000030400FEFFFFFF80AD7A3703D0AA73F44240600000030400FEFFFFFF80AD7A3703D0AA73F48240600000030400FEFFFFFF80AD7A3703D0AA73F4050141501A8000000C800406800020000A5058000000C10000000000000004901010000000000003
310
E0FC000000000000F83F0000000000003E0FC000000000000F83F02B5E8DC0F42B1CFC0AD7A3703D0AC73F419019018000000C1003FBFFFFFE02B5E8DC0F42A9CFD029018000000C1003FBFFFFFE02B5E8DC0F42A9CFD049018000000C1003FBFFFFFE02B5E8DC0F42A9CFD089018000000C1003FBFFFFFE02B5E8DC0F42A9
310
CFD109018000000C1003FBFFFFFE02B5E8DC0F42A9CFD209018000000C1003FBFFFFFE02B5E8DC0F42A9CFD0240505406A0000003200101A000080002940A000000304000000000000001240404000000000000F83F0000000000003E0FC000000000000F83F0000000000003E0FC0AD7A3703D0AC73F02B5E8DC0F42B1CFD
310
0640640600000030400FEFFFFFF80AD7A3703D0AA73F40A40600000030400FEFFFFFF80AD7A3703D0AA73F41240600000030400FEFFFFFF80AD7A3703D0AA73F42240600000030400FEFFFFFF80AD7A3703D0AA73F44240600000030400FEFFFFFF80AD7A3703D0AA73F48240600000030400FEFFFFFF80AD7A3703D0AA73F
310
40D02F
340
11
340
0
340
0
340
0
340
0
340
0
340
0
340
11
340
0
340
0
340
0
340
0
340
0
340
0
340
11
340
0
340
0
340
0
340
0
340
0
340
0
 94
        0
  0
XRECORD
  5
165D8
102
{ACAD_REACTORS
330
165D7
102
}
330
165D7
100
AcDbXrecord
280
     1
102
RTVSPost2010Prop28
280
     1
102
RTVSPost2010PropOp28
 70
     1
102
RTVSPost2010Prop29
280
     1
102
RTVSPost2010PropOp29
 70
     1
102
RTVSPost2010Prop30
280
     0
102
RTVSPost2010PropOp30
 70
     1
102
RTVSPost2010Prop31
280
     0
102
RTVSPost2010PropOp31
 70
     1
102
RTVSPost2010Prop32
280
     0
102
RTVSPost2010PropOp32
 70
     1
102
RTVSPost2010Prop33
280
     0
102
RTVSPost2010PropOp33
 70
     1
102
RTVSPost2010Prop34
280
     0
102
RTVSPost2010PropOp34
 70
     1
102
RTVSPost2010Prop35
280
     0
102
RTVSPost2010PropOp35
 70
     1
102
RTVSPost2010Prop36
280
     0
102
RTVSPost2010PropOp36
 70
     1
102
RTVSPost2010Prop37
 90
       50
102
RTVSPost2010PropOp37
 70
     1
102
RTVSPost2010Prop38
140
0.0
102
RTVSPost2010PropOp38
 70
     1
102
RTVSPost2010Prop39
140
1.0
102
RTVSPost2010PropOp39
 70
     1
102
RTVSPost2010Prop40
 90
        0
102
RTVSPost2010PropOp40
 70
     1
102
RTVSPost2010Prop41ColorIndex
 90
       18
102
RTVSPost2010Prop41ColorRGB
 90
        0
102
RTVSPost2010PropOp41
 70
     1
102
RTVSPost2010Prop42
 90
       50
102
RTVSPost2010PropOp42
 70
     1
102
RTVSPost2010Prop43
 90
        3
102
RTVSPost2010PropOp43
 70
     1
102
RTVSPost2010Prop44ColorIndex
 90
        5
102
RTVSPost2010Prop44ColorRGB
 90
      255
102
RTVSPost2010PropOp44
 70
     1
102
RTVSPost2010Prop45
280
     0
102
RTVSPost2010PropOp45
 70
     1
102
RTVSPost2010Prop46
 90
       50
102
RTVSPost2010PropOp46
 70
     1
102
RTVSPost2010Prop47
 90
       50
102
RTVSPost2010PropOp47
 70
     1
102
RTVSPost2010Prop48
 90
       50
102
RTVSPost2010PropOp48
 70
     1
102
RTVSPost2010Prop49
280
     0
102
RTVSPost2010PropOp49
 70
     1
102
RTVSPost2010Prop50
 90
       50
102
RTVSPost2010PropOp50
 70
     1
102
RTVSPost2010Prop51ColorIndex
 90
      256
102
RTVSPost2010Prop51ColorRGB
 90
-16777216
102
RTVSPost2010PropOp51
 70
     0
102
RTVSPost2010Prop52
140
1.0
102
RTVSPost2010PropOp52
 70
     0
102
RTVSPost2010Prop53
 90
        2
102
RTVSPost2010PropOp53
 70
     1
102
RTVSPost2010Prop54
  1
strokes_ogs.tif
102
RTVSPost2010PropOp54
 70
     1
102
RTVSPost2010Prop55
280
     0
102
RTVSPost2010PropOp55
 70
     1
102
RTVSPost2010Prop56
140
1.0
102
RTVSPost2010PropOp56
 70
     1
102
RTVSPost2010Prop57
140
1.0
102
RTVSPost2010PropOp57
 70
     1
102
RTVSPropertyOp0
 70
     1
102
RTVSPropertyOp1
 70
     1
102
RTVSPropertyOp2
 70
     1
102
RTVSPropertyOp3
 70
     1
102
RTVSPropertyOp4
 70
     1
102
RTVSPropertyOp5
 70
     1
102
RTVSPropertyOp6
 70
     1
102
RTVSPropertyOp7
 70
     1
102
RTVSPropertyOp8
 70
     1
102
RTVSPropertyOp9
 70
     1
102
RTVSPropertyOp10
 70
     1
102
RTVSPropertyOp11
 70
     1
102
RTVSPropertyOp12
 70
     1
102
RTVSPropertyOp13
 70
     1
102
RTVSPropertyOp14
 70
     1
102
RTVSPropertyOp15
 70
     1
102
RTVSPropertyOp16
 70
     1
102
RTVSPropertyOp17
 70
     1
102
RTVSPropertyOp18
 70
     1
102
RTVSPropertyOp19
 70
     1
102
RTVSPropertyOp20
 70
     1
102
RTVSPropertyOp21
 70
     1
102
RTVSPropertyOp22
 70
     1
102
RTVSPropertyOp23
 70
     1
102
RTVSPropertyOp24
 70
     1
102
RTVSPropertyOp25
 70
     1
102
RTVSPropertyOp26
 70
     1
102
RTVSPropertyOp27
 70
     1
102
RTVSPropertyOp28
 70
     1
102
RTVSPropertyOp29
 70
     1
102
RTVSPropertyOp30
 70
     1
102
RTVSPropertyOp31
 70
     1
102
RTVSPropertyOp32
 70
     1
102
RTVSPropertyOp33
 70
     1
102
RTVSPropertyOp34
 70
     1
102
RTVSPropertyOp35
 70
     1
102
RTVSPropertyOp36
 70
     1
102
RTVSPropertyOp37
 70
     1
102
RTVSPropertyOp38
 70
     1
102
RTVSPropertyOp39
 70
     1
102
RTVSPropertyOp40
 70
     1
102
RTVSPropertyOp41
 70
     1
102
RTVSPropertyOp42
 70
     1
102
RTVSPropertyOp43
 70
     1
102
RTVSPropertyOp44
 70
     1
102
RTVSPropertyOp45
 70
     1
102
RTVSPropertyOp46
 70
     1
102
RTVSPropertyOp47
 70
     1
102
RTVSPropertyOp48
 70
     1
102
RTVSPropertyOp49
 70
     1
102
RTVSPropertyOp50
 70
     1
102
RTVSPropertyOp51
 70
     0
102
RTVSPropertyOp52
 70
     0
102
RTVSPropertyOp53
 70
     1
102
RTVSPropertyOp54
 70
     1
102
RTVSPropertyOp55
 70
     1
102
RTVSPropertyOp56
 70
     1
102
RTVSPropertyOp57
 70
     1
102
RTVSPropertyOp58
 70
     1
102
RTVSPropertyOp59
 70
     1
102
RTVSPropertyOp60
 70
     1
102
RTVSPropertyOp61
 70
     1
102
RTVSPropertyOp62
 70
     1
  0
XRECORD
  5
165DC
102
{ACAD_REACTORS
330
165DB
102
}
330
165DB
100
AcDbXrecord
280
     1
102
RTVSPost2010Prop28
280
     0
102
RTVSPost2010PropOp28
 70
     1
102
RTVSPost2010Prop29
280
     1
102
RTVSPost2010PropOp29
 70
     1
102
RTVSPost2010Prop30
280
     1
102
RTVSPost2010PropOp30
 70
     1
102
RTVSPost2010Prop31
280
     0
102
RTVSPost2010PropOp31
 70
     1
102
RTVSPost2010Prop32
280
     0
102
RTVSPost2010PropOp32
 70
     1
102
RTVSPost2010Prop33
280
     0
102
RTVSPost2010PropOp33
 70
     1
102
RTVSPost2010Prop34
280
     0
102
RTVSPost2010PropOp34
 70
     1
102
RTVSPost2010Prop35
280
     0
102
RTVSPost2010PropOp35
 70
     1
102
RTVSPost2010Prop36
280
     0
102
RTVSPost2010PropOp36
 70
     1
102
RTVSPost2010Prop37
 90
       50
102
RTVSPost2010PropOp37
 70
     1
102
RTVSPost2010Prop38
140
0.0
102
RTVSPost2010PropOp38
 70
     1
102
RTVSPost2010Prop39
140
1.0
102
RTVSPost2010PropOp39
 70
     1
102
RTVSPost2010Prop40
 90
        0
102
RTVSPost2010PropOp40
 70
     1
102
RTVSPost2010Prop41ColorIndex
 90
       18
102
RTVSPost2010Prop41ColorRGB
 90
        0
102
RTVSPost2010PropOp41
 70
     1
102
RTVSPost2010Prop42
 90
       50
102
RTVSPost2010PropOp42
 70
     1
102
RTVSPost2010Prop43
 90
        3
102
RTVSPost2010PropOp43
 70
     1
102
RTVSPost2010Prop44ColorIndex
 90
        5
102
RTVSPost2010Prop44ColorRGB
 90
      255
102
RTVSPost2010PropOp44
 70
     1
102
RTVSPost2010Prop45
280
     0
102
RTVSPost2010PropOp45
 70
     1
102
RTVSPost2010Prop46
 90
       50
102
RTVSPost2010PropOp46
 70
     1
102
RTVSPost2010Prop47
 90
       50
102
RTVSPost2010PropOp47
 70
     1
102
RTVSPost2010Prop48
 90
       50
102
RTVSPost2010PropOp48
 70
     1
102
RTVSPost2010Prop49
280
     0
102
RTVSPost2010PropOp49
 70
     1
102
RTVSPost2010Prop50
 90
       50
102
RTVSPost2010PropOp50
 70
     1
102
RTVSPost2010Prop51ColorIndex
 90
      256
102
RTVSPost2010Prop51ColorRGB
 90
-16777216
102
RTVSPost2010PropOp51
 70
     0
102
RTVSPost2010Prop52
140
1.0
102
RTVSPost2010PropOp52
 70
     0
102
RTVSPost2010Prop53
 90
        2
102
RTVSPost2010PropOp53
 70
     1
102
RTVSPost2010Prop54
  1
strokes_ogs.tif
102
RTVSPost2010PropOp54
 70
     1
102
RTVSPost2010Prop55
280
     0
102
RTVSPost2010PropOp55
 70
     1
102
RTVSPost2010Prop56
140
1.0
102
RTVSPost2010PropOp56
 70
     1
102
RTVSPost2010Prop57
140
1.0
102
RTVSPost2010PropOp57
 70
     1
102
RTVSPropertyOp0
 70
     1
102
RTVSPropertyOp1
 70
     1
102
RTVSPropertyOp2
 70
     1
102
RTVSPropertyOp3
 70
     1
102
RTVSPropertyOp4
 70
     1
102
RTVSPropertyOp5
 70
     1
102
RTVSPropertyOp6
 70
     1
102
RTVSPropertyOp7
 70
     1
102
RTVSPropertyOp8
 70
     1
102
RTVSPropertyOp9
 70
     1
102
RTVSPropertyOp10
 70
     1
102
RTVSPropertyOp11
 70
     1
102
RTVSPropertyOp12
 70
     1
102
RTVSPropertyOp13
 70
     1
102
RTVSPropertyOp14
 70
     1
102
RTVSPropertyOp15
 70
     1
102
RTVSPropertyOp16
 70
     1
102
RTVSPropertyOp17
 70
     1
102
RTVSPropertyOp18
 70
     1
102
RTVSPropertyOp19
 70
     1
102
RTVSPropertyOp20
 70
     1
102
RTVSPropertyOp21
 70
     1
102
RTVSPropertyOp22
 70
     1
102
RTVSPropertyOp23
 70
     1
102
RTVSPropertyOp24
 70
     1
102
RTVSPropertyOp25
 70
     1
102
RTVSPropertyOp26
 70
     1
102
RTVSPropertyOp27
 70
     1
102
RTVSPropertyOp28
 70
     1
102
RTVSPropertyOp29
 70
     1
102
RTVSPropertyOp30
 70
     1
102
RTVSPropertyOp31
 70
     1
102
RTVSPropertyOp32
 70
     1
102
RTVSPropertyOp33
 70
     1
102
RTVSPropertyOp34
 70
     1
102
RTVSPropertyOp35
 70
     1
102
RTVSPropertyOp36
 70
     1
102
RTVSPropertyOp37
 70
     1
102
RTVSPropertyOp38
 70
     1
102
RTVSPropertyOp39
 70
     1
102
RTVSPropertyOp40
 70
     1
102
RTVSPropertyOp41
 70
     1
102
RTVSPropertyOp42
 70
     1
102
RTVSPropertyOp43
 70
     1
102
RTVSPropertyOp44
 70
     1
102
RTVSPropertyOp45
 70
     1
102
RTVSPropertyOp46
 70
     1
102
RTVSPropertyOp47
 70
     1
102
RTVSPropertyOp48
 70
     1
102
RTVSPropertyOp49
 70
     1
102
RTVSPropertyOp50
 70
     1
102
RTVSPropertyOp51
 70
     0
102
RTVSPropertyOp52
 70
     0
102
RTVSPropertyOp53
 70
     1
102
RTVSPropertyOp54
 70
     1
102
RTVSPropertyOp55
 70
     1
102
RTVSPropertyOp56
 70
     1
102
RTVSPropertyOp57
 70
     1
102
RTVSPropertyOp58
 70
     1
102
RTVSPropertyOp59
 70
     1
102
RTVSPropertyOp60
 70
     1
102
RTVSPropertyOp61
 70
     1
102
RTVSPropertyOp62
 70
     1
  0
XRECORD
  5
165DA
102
{ACAD_REACTORS
330
165D9
102
}
330
165D9
100
AcDbXrecord
280
     1
102
RTVSPost2010Prop28
280
     0
102
RTVSPost2010PropOp28
 70
     1
102
RTVSPost2010Prop29
280
     1
102
RTVSPost2010PropOp29
 70
     1
102
RTVSPost2010Prop30
280
     1
102
RTVSPost2010PropOp30
 70
     1
102
RTVSPost2010Prop31
280
     0
102
RTVSPost2010PropOp31
 70
     1
102
RTVSPost2010Prop32
280
     0
102
RTVSPost2010PropOp32
 70
     1
102
RTVSPost2010Prop33
280
     0
102
RTVSPost2010PropOp33
 70
     1
102
RTVSPost2010Prop34
280
     0
102
RTVSPost2010PropOp34
 70
     1
102
RTVSPost2010Prop35
280
     0
102
RTVSPost2010PropOp35
 70
     1
102
RTVSPost2010Prop36
280
     0
102
RTVSPost2010PropOp36
 70
     1
102
RTVSPost2010Prop37
 90
       50
102
RTVSPost2010PropOp37
 70
     1
102
RTVSPost2010Prop38
140
0.0
102
RTVSPost2010PropOp38
 70
     1
102
RTVSPost2010Prop39
140
1.0
102
RTVSPost2010PropOp39
 70
     1
102
RTVSPost2010Prop40
 90
        0
102
RTVSPost2010PropOp40
 70
     1
102
RTVSPost2010Prop41ColorIndex
 90
       18
102
RTVSPost2010Prop41ColorRGB
 90
        0
102
RTVSPost2010PropOp41
 70
     1
102
RTVSPost2010Prop42
 90
       50
102
RTVSPost2010PropOp42
 70
     1
102
RTVSPost2010Prop43
 90
        3
102
RTVSPost2010PropOp43
 70
     1
102
RTVSPost2010Prop44ColorIndex
 90
        5
102
RTVSPost2010Prop44ColorRGB
 90
      255
102
RTVSPost2010PropOp44
 70
     1
102
RTVSPost2010Prop45
280
     0
102
RTVSPost2010PropOp45
 70
     1
102
RTVSPost2010Prop46
 90
       50
102
RTVSPost2010PropOp46
 70
     1
102
RTVSPost2010Prop47
 90
       50
102
RTVSPost2010PropOp47
 70
     1
102
RTVSPost2010Prop48
 90
       50
102
RTVSPost2010PropOp48
 70
     1
102
RTVSPost2010Prop49
280
     0
102
RTVSPost2010PropOp49
 70
     1
102
RTVSPost2010Prop50
 90
       50
102
RTVSPost2010PropOp50
 70
     1
102
RTVSPost2010Prop51ColorIndex
 90
      256
102
RTVSPost2010Prop51ColorRGB
 90
-16777216
102
RTVSPost2010PropOp51
 70
     0
102
RTVSPost2010Prop52
140
1.0
102
RTVSPost2010PropOp52
 70
     0
102
RTVSPost2010Prop53
 90
        2
102
RTVSPost2010PropOp53
 70
     1
102
RTVSPost2010Prop54
  1
strokes_ogs.tif
102
RTVSPost2010PropOp54
 70
     1
102
RTVSPost2010Prop55
280
     0
102
RTVSPost2010PropOp55
 70
     1
102
RTVSPost2010Prop56
140
1.0
102
RTVSPost2010PropOp56
 70
     1
102
RTVSPost2010Prop57
140
1.0
102
RTVSPost2010PropOp57
 70
     1
102
RTVSPropertyOp0
 70
     1
102
RTVSPropertyOp1
 70
     1
102
RTVSPropertyOp2
 70
     1
102
RTVSPropertyOp3
 70
     1
102
RTVSPropertyOp4
 70
     1
102
RTVSPropertyOp5
 70
     1
102
RTVSPropertyOp6
 70
     1
102
RTVSPropertyOp7
 70
     1
102
RTVSPropertyOp8
 70
     1
102
RTVSPropertyOp9
 70
     1
102
RTVSPropertyOp10
 70
     1
102
RTVSPropertyOp11
 70
     1
102
RTVSPropertyOp12
 70
     1
102
RTVSPropertyOp13
 70
     1
102
RTVSPropertyOp14
 70
     1
102
RTVSPropertyOp15
 70
     1
102
RTVSPropertyOp16
 70
     1
102
RTVSPropertyOp17
 70
     1
102
RTVSPropertyOp18
 70
     1
102
RTVSPropertyOp19
 70
     1
102
RTVSPropertyOp20
 70
     1
102
RTVSPropertyOp21
 70
     1
102
RTVSPropertyOp22
 70
     1
102
RTVSPropertyOp23
 70
     1
102
RTVSPropertyOp24
 70
     1
102
RTVSPropertyOp25
 70
     1
102
RTVSPropertyOp26
 70
     1
102
RTVSPropertyOp27
 70
     1
102
RTVSPropertyOp28
 70
     1
102
RTVSPropertyOp29
 70
     1
102
RTVSPropertyOp30
 70
     1
102
RTVSPropertyOp31
 70
     1
102
RTVSPropertyOp32
 70
     1
102
RTVSPropertyOp33
 70
     1
102
RTVSPropertyOp34
 70
     1
102
RTVSPropertyOp35
 70
     1
102
RTVSPropertyOp36
 70
     1
102
RTVSPropertyOp37
 70
     1
102
RTVSPropertyOp38
 70
     1
102
RTVSPropertyOp39
 70
     1
102
RTVSPropertyOp40
 70
     1
102
RTVSPropertyOp41
 70
     1
102
RTVSPropertyOp42
 70
     1
102
RTVSPropertyOp43
 70
     1
102
RTVSPropertyOp44
 70
     1
102
RTVSPropertyOp45
 70
     1
102
RTVSPropertyOp46
 70
     1
102
RTVSPropertyOp47
 70
     1
102
RTVSPropertyOp48
 70
     1
102
RTVSPropertyOp49
 70
     1
102
RTVSPropertyOp50
 70
     1
102
RTVSPropertyOp51
 70
     0
102
RTVSPropertyOp52
 70
     0
102
RTVSPropertyOp53
 70
     1
102
RTVSPropertyOp54
 70
     1
102
RTVSPropertyOp55
 70
     1
102
RTVSPropertyOp56
 70
     1
102
RTVSPropertyOp57
 70
     1
102
RTVSPropertyOp58
 70
     1
102
RTVSPropertyOp59
 70
     1
102
RTVSPropertyOp60
 70
     1
102
RTVSPropertyOp61
 70
     1
102
RTVSPropertyOp62
 70
     1
  0
XRECORD
  5
165D6
102
{ACAD_REACTORS
330
165D5
102
}
330
165D5
100
AcDbXrecord
280
     1
102
RTVSPost2010Prop28
280
     0
102
RTVSPost2010PropOp28
 70
     1
102
RTVSPost2010Prop29
280
     1
102
RTVSPost2010PropOp29
 70
     1
102
RTVSPost2010Prop30
280
     1
102
RTVSPost2010PropOp30
 70
     1
102
RTVSPost2010Prop31
280
     0
102
RTVSPost2010PropOp31
 70
     1
102
RTVSPost2010Prop32
280
     0
102
RTVSPost2010PropOp32
 70
     1
102
RTVSPost2010Prop33
280
     0
102
RTVSPost2010PropOp33
 70
     1
102
RTVSPost2010Prop34
280
     0
102
RTVSPost2010PropOp34
 70
     1
102
RTVSPost2010Prop35
280
     0
102
RTVSPost2010PropOp35
 70
     1
102
RTVSPost2010Prop36
280
     0
102
RTVSPost2010PropOp36
 70
     1
102
RTVSPost2010Prop37
 90
       50
102
RTVSPost2010PropOp37
 70
     1
102
RTVSPost2010Prop38
140
0.0
102
RTVSPost2010PropOp38
 70
     1
102
RTVSPost2010Prop39
140
1.0
102
RTVSPost2010PropOp39
 70
     1
102
RTVSPost2010Prop40
 90
        0
102
RTVSPost2010PropOp40
 70
     1
102
RTVSPost2010Prop41ColorIndex
 90
       18
102
RTVSPost2010Prop41ColorRGB
 90
        0
102
RTVSPost2010PropOp41
 70
     1
102
RTVSPost2010Prop42
 90
       50
102
RTVSPost2010PropOp42
 70
     1
102
RTVSPost2010Prop43
 90
        3
102
RTVSPost2010PropOp43
 70
     1
102
RTVSPost2010Prop44ColorIndex
 90
        5
102
RTVSPost2010Prop44ColorRGB
 90
      255
102
RTVSPost2010PropOp44
 70
     1
102
RTVSPost2010Prop45
280
     0
102
RTVSPost2010PropOp45
 70
     1
102
RTVSPost2010Prop46
 90
       50
102
RTVSPost2010PropOp46
 70
     1
102
RTVSPost2010Prop47
 90
       50
102
RTVSPost2010PropOp47
 70
     1
102
RTVSPost2010Prop48
 90
       50
102
RTVSPost2010PropOp48
 70
     1
102
RTVSPost2010Prop49
280
     0
102
RTVSPost2010PropOp49
 70
     1
102
RTVSPost2010Prop50
 90
       50
102
RTVSPost2010PropOp50
 70
     1
102
RTVSPost2010Prop51ColorIndex
 90
      256
102
RTVSPost2010Prop51ColorRGB
 90
-16777216
102
RTVSPost2010PropOp51
 70
     0
102
RTVSPost2010Prop52
140
1.0
102
RTVSPost2010PropOp52
 70
     0
102
RTVSPost2010Prop53
 90
        2
102
RTVSPost2010PropOp53
 70
     1
102
RTVSPost2010Prop54
  1
strokes_ogs.tif
102
RTVSPost2010PropOp54
 70
     1
102
RTVSPost2010Prop55
280
     0
102
RTVSPost2010PropOp55
 70
     1
102
RTVSPost2010Prop56
140
1.0
102
RTVSPost2010PropOp56
 70
     1
102
RTVSPost2010Prop57
140
1.0
102
RTVSPost2010PropOp57
 70
     1
102
RTVSPropertyOp0
 70
     1
102
RTVSPropertyOp1
 70
     1
102
RTVSPropertyOp2
 70
     1
102
RTVSPropertyOp3
 70
     1
102
RTVSPropertyOp4
 70
     1
102
RTVSPropertyOp5
 70
     1
102
RTVSPropertyOp6
 70
     1
102
RTVSPropertyOp7
 70
     1
102
RTVSPropertyOp8
 70
     1
102
RTVSPropertyOp9
 70
     1
102
RTVSPropertyOp10
 70
     1
102
RTVSPropertyOp11
 70
     1
102
RTVSPropertyOp12
 70
     1
102
RTVSPropertyOp13
 70
     1
102
RTVSPropertyOp14
 70
     1
102
RTVSPropertyOp15
 70
     1
102
RTVSPropertyOp16
 70
     1
102
RTVSPropertyOp17
 70
     1
102
RTVSPropertyOp18
 70
     1
102
RTVSPropertyOp19
 70
     1
102
RTVSPropertyOp20
 70
     1
102
RTVSPropertyOp21
 70
     1
102
RTVSPropertyOp22
 70
     1
102
RTVSPropertyOp23
 70
     1
102
RTVSPropertyOp24
 70
     1
102
RTVSPropertyOp25
 70
     1
102
RTVSPropertyOp26
 70
     1
102
RTVSPropertyOp27
 70
     1
102
RTVSPropertyOp28
 70
     1
102
RTVSPropertyOp29
 70
     1
102
RTVSPropertyOp30
 70
     1
102
RTVSPropertyOp31
 70
     1
102
RTVSPropertyOp32
 70
     1
102
RTVSPropertyOp33
 70
     1
102
RTVSPropertyOp34
 70
     1
102
RTVSPropertyOp35
 70
     1
102
RTVSPropertyOp36
 70
     1
102
RTVSPropertyOp37
 70
     1
102
RTVSPropertyOp38
 70
     1
102
RTVSPropertyOp39
 70
     1
102
RTVSPropertyOp40
 70
     1
102
RTVSPropertyOp41
 70
     1
102
RTVSPropertyOp42
 70
     1
102
RTVSPropertyOp43
 70
     1
102
RTVSPropertyOp44
 70
     1
102
RTVSPropertyOp45
 70
     1
102
RTVSPropertyOp46
 70
     1
102
RTVSPropertyOp47
 70
     1
102
RTVSPropertyOp48
 70
     1
102
RTVSPropertyOp49
 70
     1
102
RTVSPropertyOp50
 70
     1
102
RTVSPropertyOp51
 70
     0
102
RTVSPropertyOp52
 70
     0
102
RTVSPropertyOp53
 70
     1
102
RTVSPropertyOp54
 70
     1
102
RTVSPropertyOp55
 70
     1
102
RTVSPropertyOp56
 70
     1
102
RTVSPropertyOp57
 70
     1
102
RTVSPropertyOp58
 70
     1
102
RTVSPropertyOp59
 70
     1
102
RTVSPropertyOp60
 70
     1
102
RTVSPropertyOp61
 70
     1
102
RTVSPropertyOp62
 70
     1
  0
XRECORD
  5
165E4
102
{ACAD_REACTORS
330
165E3
102
}
330
165E3
100
AcDbXrecord
280
     1
102
RTVSPost2010Prop28
280
     0
102
RTVSPost2010PropOp28
 70
     1
102
RTVSPost2010Prop29
280
     1
102
RTVSPost2010PropOp29
 70
     1
102
RTVSPost2010Prop30
280
     1
102
RTVSPost2010PropOp30
 70
     1
102
RTVSPost2010Prop31
280
     0
102
RTVSPost2010PropOp31
 70
     1
102
RTVSPost2010Prop32
280
     0
102
RTVSPost2010PropOp32
 70
     1
102
RTVSPost2010Prop33
280
     0
102
RTVSPost2010PropOp33
 70
     1
102
RTVSPost2010Prop34
280
     0
102
RTVSPost2010PropOp34
 70
     1
102
RTVSPost2010Prop35
280
     0
102
RTVSPost2010PropOp35
 70
     1
102
RTVSPost2010Prop36
280
     0
102
RTVSPost2010PropOp36
 70
     1
102
RTVSPost2010Prop37
 90
       50
102
RTVSPost2010PropOp37
 70
     1
102
RTVSPost2010Prop38
140
0.0
102
RTVSPost2010PropOp38
 70
     1
102
RTVSPost2010Prop39
140
1.0
102
RTVSPost2010PropOp39
 70
     1
102
RTVSPost2010Prop40
 90
        0
102
RTVSPost2010PropOp40
 70
     1
102
RTVSPost2010Prop41ColorIndex
 90
       18
102
RTVSPost2010Prop41ColorRGB
 90
        0
102
RTVSPost2010PropOp41
 70
     1
102
RTVSPost2010Prop42
 90
       50
102
RTVSPost2010PropOp42
 70
     1
102
RTVSPost2010Prop43
 90
        3
102
RTVSPost2010PropOp43
 70
     1
102
RTVSPost2010Prop44ColorIndex
 90
        5
102
RTVSPost2010Prop44ColorRGB
 90
      255
102
RTVSPost2010PropOp44
 70
     1
102
RTVSPost2010Prop45
280
     0
102
RTVSPost2010PropOp45
 70
     1
102
RTVSPost2010Prop46
 90
       50
102
RTVSPost2010PropOp46
 70
     1
102
RTVSPost2010Prop47
 90
       50
102
RTVSPost2010PropOp47
 70
     1
102
RTVSPost2010Prop48
 90
       50
102
RTVSPost2010PropOp48
 70
     1
102
RTVSPost2010Prop49
280
     0
102
RTVSPost2010PropOp49
 70
     1
102
RTVSPost2010Prop50
 90
       50
102
RTVSPost2010PropOp50
 70
     1
102
RTVSPost2010Prop51ColorIndex
 90
      256
102
RTVSPost2010Prop51ColorRGB
 90
-16777216
102
RTVSPost2010PropOp51
 70
     0
102
RTVSPost2010Prop52
140
1.0
102
RTVSPost2010PropOp52
 70
     0
102
RTVSPost2010Prop53
 90
        2
102
RTVSPost2010PropOp53
 70
     1
102
RTVSPost2010Prop54
  1
strokes_ogs.tif
102
RTVSPost2010PropOp54
 70
     1
102
RTVSPost2010Prop55
280
     0
102
RTVSPost2010PropOp55
 70
     1
102
RTVSPost2010Prop56
140
1.0
102
RTVSPost2010PropOp56
 70
     1
102
RTVSPost2010Prop57
140
1.0
102
RTVSPost2010PropOp57
 70
     1
102
RTVSPropertyOp0
 70
     1
102
RTVSPropertyOp1
 70
     1
102
RTVSPropertyOp2
 70
     1
102
RTVSPropertyOp3
 70
     1
102
RTVSPropertyOp4
 70
     1
102
RTVSPropertyOp5
 70
     1
102
RTVSPropertyOp6
 70
     1
102
RTVSPropertyOp7
 70
     1
102
RTVSPropertyOp8
 70
     1
102
RTVSPropertyOp9
 70
     1
102
RTVSPropertyOp10
 70
     1
102
RTVSPropertyOp11
 70
     1
102
RTVSPropertyOp12
 70
     1
102
RTVSPropertyOp13
 70
     1
102
RTVSPropertyOp14
 70
     1
102
RTVSPropertyOp15
 70
     1
102
RTVSPropertyOp16
 70
     1
102
RTVSPropertyOp17
 70
     1
102
RTVSPropertyOp18
 70
     1
102
RTVSPropertyOp19
 70
     1
102
RTVSPropertyOp20
 70
     1
102
RTVSPropertyOp21
 70
     1
102
RTVSPropertyOp22
 70
     1
102
RTVSPropertyOp23
 70
     1
102
RTVSPropertyOp24
 70
     1
102
RTVSPropertyOp25
 70
     1
102
RTVSPropertyOp26
 70
     1
102
RTVSPropertyOp27
 70
     1
102
RTVSPropertyOp28
 70
     1
102
RTVSPropertyOp29
 70
     1
102
RTVSPropertyOp30
 70
     1
102
RTVSPropertyOp31
 70
     1
102
RTVSPropertyOp32
 70
     1
102
RTVSPropertyOp33
 70
     1
102
RTVSPropertyOp34
 70
     1
102
RTVSPropertyOp35
 70
     1
102
RTVSPropertyOp36
 70
     1
102
RTVSPropertyOp37
 70
     1
102
RTVSPropertyOp38
 70
     1
102
RTVSPropertyOp39
 70
     1
102
RTVSPropertyOp40
 70
     1
102
RTVSPropertyOp41
 70
     1
102
RTVSPropertyOp42
 70
     1
102
RTVSPropertyOp43
 70
     1
102
RTVSPropertyOp44
 70
     1
102
RTVSPropertyOp45
 70
     1
102
RTVSPropertyOp46
 70
     1
102
RTVSPropertyOp47
 70
     1
102
RTVSPropertyOp48
 70
     1
102
RTVSPropertyOp49
 70
     1
102
RTVSPropertyOp50
 70
     1
102
RTVSPropertyOp51
 70
     0
102
RTVSPropertyOp52
 70
     0
102
RTVSPropertyOp53
 70
     1
102
RTVSPropertyOp54
 70
     1
102
RTVSPropertyOp55
 70
     1
102
RTVSPropertyOp56
 70
     1
102
RTVSPropertyOp57
 70
     1
102
RTVSPropertyOp58
 70
     1
102
RTVSPropertyOp59
 70
     1
102
RTVSPropertyOp60
 70
     1
102
RTVSPropertyOp61
 70
     1
102
RTVSPropertyOp62
 70
     1
  0
XRECORD
  5
165EC
102
{ACAD_REACTORS
330
165EB
102
}
330
165EB
100
AcDbXrecord
280
     1
102
RTVSPost2010Prop28
280
     0
102
RTVSPost2010PropOp28
 70
     1
102
RTVSPost2010Prop29
280
     1
102
RTVSPost2010PropOp29
 70
     1
102
RTVSPost2010Prop30
280
     1
102
RTVSPost2010PropOp30
 70
     1
102
RTVSPost2010Prop31
280
     0
102
RTVSPost2010PropOp31
 70
     1
102
RTVSPost2010Prop32
280
     0
102
RTVSPost2010PropOp32
 70
     1
102
RTVSPost2010Prop33
280
     0
102
RTVSPost2010PropOp33
 70
     1
102
RTVSPost2010Prop34
280
     0
102
RTVSPost2010PropOp34
 70
     1
102
RTVSPost2010Prop35
280
     0
102
RTVSPost2010PropOp35
 70
     1
102
RTVSPost2010Prop36
280
     0
102
RTVSPost2010PropOp36
 70
     1
102
RTVSPost2010Prop37
 90
       50
102
RTVSPost2010PropOp37
 70
     1
102
RTVSPost2010Prop38
140
0.0
102
RTVSPost2010PropOp38
 70
     1
102
RTVSPost2010Prop39
140
1.0
102
RTVSPost2010PropOp39
 70
     1
102
RTVSPost2010Prop40
 90
        0
102
RTVSPost2010PropOp40
 70
     1
102
RTVSPost2010Prop41ColorIndex
 90
       18
102
RTVSPost2010Prop41ColorRGB
 90
        0
102
RTVSPost2010PropOp41
 70
     1
102
RTVSPost2010Prop42
 90
       50
102
RTVSPost2010PropOp42
 70
     1
102
RTVSPost2010Prop43
 90
        3
102
RTVSPost2010PropOp43
 70
     1
102
RTVSPost2010Prop44ColorIndex
 90
        5
102
RTVSPost2010Prop44ColorRGB
 90
      255
102
RTVSPost2010PropOp44
 70
     1
102
RTVSPost2010Prop45
280
     0
102
RTVSPost2010PropOp45
 70
     1
102
RTVSPost2010Prop46
 90
       50
102
RTVSPost2010PropOp46
 70
     1
102
RTVSPost2010Prop47
 90
       50
102
RTVSPost2010PropOp47
 70
     1
102
RTVSPost2010Prop48
 90
       50
102
RTVSPost2010PropOp48
 70
     1
102
RTVSPost2010Prop49
280
     0
102
RTVSPost2010PropOp49
 70
     1
102
RTVSPost2010Prop50
 90
       50
102
RTVSPost2010PropOp50
 70
     1
102
RTVSPost2010Prop51ColorIndex
 90
      256
102
RTVSPost2010Prop51ColorRGB
 90
-16777216
102
RTVSPost2010PropOp51
 70
     0
102
RTVSPost2010Prop52
140
1.0
102
RTVSPost2010PropOp52
 70
     0
102
RTVSPost2010Prop53
 90
        2
102
RTVSPost2010PropOp53
 70
     1
102
RTVSPost2010Prop54
  1
strokes_ogs.tif
102
RTVSPost2010PropOp54
 70
     1
102
RTVSPost2010Prop55
280
     0
102
RTVSPost2010PropOp55
 70
     1
102
RTVSPost2010Prop56
140
1.0
102
RTVSPost2010PropOp56
 70
     1
102
RTVSPost2010Prop57
140
1.0
102
RTVSPost2010PropOp57
 70
     1
102
RTVSPropertyOp0
 70
     1
102
RTVSPropertyOp1
 70
     1
102
RTVSPropertyOp2
 70
     1
102
RTVSPropertyOp3
 70
     1
102
RTVSPropertyOp4
 70
     1
102
RTVSPropertyOp5
 70
     1
102
RTVSPropertyOp6
 70
     1
102
RTVSPropertyOp7
 70
     1
102
RTVSPropertyOp8
 70
     1
102
RTVSPropertyOp9
 70
     1
102
RTVSPropertyOp10
 70
     1
102
RTVSPropertyOp11
 70
     1
102
RTVSPropertyOp12
 70
     1
102
RTVSPropertyOp13
 70
     1
102
RTVSPropertyOp14
 70
     1
102
RTVSPropertyOp15
 70
     1
102
RTVSPropertyOp16
 70
     1
102
RTVSPropertyOp17
 70
     1
102
RTVSPropertyOp18
 70
     1
102
RTVSPropertyOp19
 70
     1
102
RTVSPropertyOp20
 70
     1
102
RTVSPropertyOp21
 70
     1
102
RTVSPropertyOp22
 70
     1
102
RTVSPropertyOp23
 70
     1
102
RTVSPropertyOp24
 70
     1
102
RTVSPropertyOp25
 70
     1
102
RTVSPropertyOp26
 70
     1
102
RTVSPropertyOp27
 70
     1
102
RTVSPropertyOp28
 70
     1
102
RTVSPropertyOp29
 70
     1
102
RTVSPropertyOp30
 70
     1
102
RTVSPropertyOp31
 70
     1
102
RTVSPropertyOp32
 70
     1
102
RTVSPropertyOp33
 70
     1
102
RTVSPropertyOp34
 70
     1
102
RTVSPropertyOp35
 70
     1
102
RTVSPropertyOp36
 70
     1
102
RTVSPropertyOp37
 70
     1
102
RTVSPropertyOp38
 70
     1
102
RTVSPropertyOp39
 70
     1
102
RTVSPropertyOp40
 70
     1
102
RTVSPropertyOp41
 70
     1
102
RTVSPropertyOp42
 70
     1
102
RTVSPropertyOp43
 70
     1
102
RTVSPropertyOp44
 70
     1
102
RTVSPropertyOp45
 70
     1
102
RTVSPropertyOp46
 70
     1
102
RTVSPropertyOp47
 70
     1
102
RTVSPropertyOp48
 70
     1
102
RTVSPropertyOp49
 70
     1
102
RTVSPropertyOp50
 70
     1
102
RTVSPropertyOp51
 70
     0
102
RTVSPropertyOp52
 70
     0
102
RTVSPropertyOp53
 70
     1
102
RTVSPropertyOp54
 70
     1
102
RTVSPropertyOp55
 70
     1
102
RTVSPropertyOp56
 70
     1
102
RTVSPropertyOp57
 70
     1
102
RTVSPropertyOp58
 70
     1
102
RTVSPropertyOp59
 70
     1
102
RTVSPropertyOp60
 70
     1
102
RTVSPropertyOp61
 70
     1
102
RTVSPropertyOp62
 70
     1
  0
XRECORD
  5
165DE
102
{ACAD_REACTORS
330
165DD
102
}
330
165DD
100
AcDbXrecord
280
     1
102
RTVSPost2010Prop28
280
     0
102
RTVSPost2010PropOp28
 70
     1
102
RTVSPost2010Prop29
280
     1
102
RTVSPost2010PropOp29
 70
     1
102
RTVSPost2010Prop30
280
     1
102
RTVSPost2010PropOp30
 70
     1
102
RTVSPost2010Prop31
280
     0
102
RTVSPost2010PropOp31
 70
     1
102
RTVSPost2010Prop32
280
     0
102
RTVSPost2010PropOp32
 70
     1
102
RTVSPost2010Prop33
280
     0
102
RTVSPost2010PropOp33
 70
     1
102
RTVSPost2010Prop34
280
     0
102
RTVSPost2010PropOp34
 70
     1
102
RTVSPost2010Prop35
280
     0
102
RTVSPost2010PropOp35
 70
     1
102
RTVSPost2010Prop36
280
     0
102
RTVSPost2010PropOp36
 70
     1
102
RTVSPost2010Prop37
 90
       50
102
RTVSPost2010PropOp37
 70
     1
102
RTVSPost2010Prop38
140
0.0
102
RTVSPost2010PropOp38
 70
     1
102
RTVSPost2010Prop39
140
1.0
102
RTVSPost2010PropOp39
 70
     1
102
RTVSPost2010Prop40
 90
        0
102
RTVSPost2010PropOp40
 70
     1
102
RTVSPost2010Prop41ColorIndex
 90
       18
102
RTVSPost2010Prop41ColorRGB
 90
        0
102
RTVSPost2010PropOp41
 70
     1
102
RTVSPost2010Prop42
 90
       50
102
RTVSPost2010PropOp42
 70
     1
102
RTVSPost2010Prop43
 90
        3
102
RTVSPost2010PropOp43
 70
     1
102
RTVSPost2010Prop44ColorIndex
 90
        5
102
RTVSPost2010Prop44ColorRGB
 90
      255
102
RTVSPost2010PropOp44
 70
     1
102
RTVSPost2010Prop45
280
     0
102
RTVSPost2010PropOp45
 70
     1
102
RTVSPost2010Prop46
 90
       50
102
RTVSPost2010PropOp46
 70
     1
102
RTVSPost2010Prop47
 90
       50
102
RTVSPost2010PropOp47
 70
     1
102
RTVSPost2010Prop48
 90
       50
102
RTVSPost2010PropOp48
 70
     1
102
RTVSPost2010Prop49
280
     0
102
RTVSPost2010PropOp49
 70
     1
102
RTVSPost2010Prop50
 90
       50
102
RTVSPost2010PropOp50
 70
     1
102
RTVSPost2010Prop51ColorIndex
 90
      256
102
RTVSPost2010Prop51ColorRGB
 90
-16777216
102
RTVSPost2010PropOp51
 70
     0
102
RTVSPost2010Prop52
140
1.0
102
RTVSPost2010PropOp52
 70
     0
102
RTVSPost2010Prop53
 90
        2
102
RTVSPost2010PropOp53
 70
     1
102
RTVSPost2010Prop54
  1
strokes_ogs.tif
102
RTVSPost2010PropOp54
 70
     1
102
RTVSPost2010Prop55
280
     0
102
RTVSPost2010PropOp55
 70
     1
102
RTVSPost2010Prop56
140
1.0
102
RTVSPost2010PropOp56
 70
     1
102
RTVSPost2010Prop57
140
1.0
102
RTVSPost2010PropOp57
 70
     1
102
RTVSPropertyOp0
 70
     1
102
RTVSPropertyOp1
 70
     1
102
RTVSPropertyOp2
 70
     1
102
RTVSPropertyOp3
 70
     1
102
RTVSPropertyOp4
 70
     1
102
RTVSPropertyOp5
 70
     1
102
RTVSPropertyOp6
 70
     1
102
RTVSPropertyOp7
 70
     1
102
RTVSPropertyOp8
 70
     1
102
RTVSPropertyOp9
 70
     1
102
RTVSPropertyOp10
 70
     1
102
RTVSPropertyOp11
 70
     1
102
RTVSPropertyOp12
 70
     1
102
RTVSPropertyOp13
 70
     1
102
RTVSPropertyOp14
 70
     1
102
RTVSPropertyOp15
 70
     1
102
RTVSPropertyOp16
 70
     1
102
RTVSPropertyOp17
 70
     1
102
RTVSPropertyOp18
 70
     1
102
RTVSPropertyOp19
 70
     1
102
RTVSPropertyOp20
 70
     1
102
RTVSPropertyOp21
 70
     1
102
RTVSPropertyOp22
 70
     1
102
RTVSPropertyOp23
 70
     1
102
RTVSPropertyOp24
 70
     1
102
RTVSPropertyOp25
 70
     1
102
RTVSPropertyOp26
 70
     1
102
RTVSPropertyOp27
 70
     1
102
RTVSPropertyOp28
 70
     1
102
RTVSPropertyOp29
 70
     1
102
RTVSPropertyOp30
 70
     1
102
RTVSPropertyOp31
 70
     1
102
RTVSPropertyOp32
 70
     1
102
RTVSPropertyOp33
 70
     1
102
RTVSPropertyOp34
 70
     1
102
RTVSPropertyOp35
 70
     1
102
RTVSPropertyOp36
 70
     1
102
RTVSPropertyOp37
 70
     1
102
RTVSPropertyOp38
 70
     1
102
RTVSPropertyOp39
 70
     1
102
RTVSPropertyOp40
 70
     1
102
RTVSPropertyOp41
 70
     1
102
RTVSPropertyOp42
 70
     1
102
RTVSPropertyOp43
 70
     1
102
RTVSPropertyOp44
 70
     1
102
RTVSPropertyOp45
 70
     1
102
RTVSPropertyOp46
 70
     1
102
RTVSPropertyOp47
 70
     1
102
RTVSPropertyOp48
 70
     1
102
RTVSPropertyOp49
 70
     1
102
RTVSPropertyOp50
 70
     1
102
RTVSPropertyOp51
 70
     0
102
RTVSPropertyOp52
 70
     0
102
RTVSPropertyOp53
 70
     1
102
RTVSPropertyOp54
 70
     1
102
RTVSPropertyOp55
 70
     1
102
RTVSPropertyOp56
 70
     1
102
RTVSPropertyOp57
 70
     1
102
RTVSPropertyOp58
 70
     1
102
RTVSPropertyOp59
 70
     1
102
RTVSPropertyOp60
 70
     1
102
RTVSPropertyOp61
 70
     1
102
RTVSPropertyOp62
 70
     1
  0
XRECORD
  5
165E2
102
{ACAD_REACTORS
330
165E1
102
}
330
165E1
100
AcDbXrecord
280
     1
102
RTVSPost2010Prop28
280
     0
102
RTVSPost2010PropOp28
 70
     1
102
RTVSPost2010Prop29
280
     1
102
RTVSPost2010PropOp29
 70
     1
102
RTVSPost2010Prop30
280
     1
102
RTVSPost2010PropOp30
 70
     1
102
RTVSPost2010Prop31
280
     0
102
RTVSPost2010PropOp31
 70
     1
102
RTVSPost2010Prop32
280
     0
102
RTVSPost2010PropOp32
 70
     1
102
RTVSPost2010Prop33
280
     0
102
RTVSPost2010PropOp33
 70
     1
102
RTVSPost2010Prop34
280
     0
102
RTVSPost2010PropOp34
 70
     1
102
RTVSPost2010Prop35
280
     0
102
RTVSPost2010PropOp35
 70
     1
102
RTVSPost2010Prop36
280
     0
102
RTVSPost2010PropOp36
 70
     1
102
RTVSPost2010Prop37
 90
       50
102
RTVSPost2010PropOp37
 70
     1
102
RTVSPost2010Prop38
140
0.0
102
RTVSPost2010PropOp38
 70
     1
102
RTVSPost2010Prop39
140
1.0
102
RTVSPost2010PropOp39
 70
     1
102
RTVSPost2010Prop40
 90
        0
102
RTVSPost2010PropOp40
 70
     1
102
RTVSPost2010Prop41ColorIndex
 90
       18
102
RTVSPost2010Prop41ColorRGB
 90
        0
102
RTVSPost2010PropOp41
 70
     1
102
RTVSPost2010Prop42
 90
       50
102
RTVSPost2010PropOp42
 70
     1
102
RTVSPost2010Prop43
 90
        3
102
RTVSPost2010PropOp43
 70
     1
102
RTVSPost2010Prop44ColorIndex
 90
        5
102
RTVSPost2010Prop44ColorRGB
 90
      255
102
RTVSPost2010PropOp44
 70
     1
102
RTVSPost2010Prop45
280
     0
102
RTVSPost2010PropOp45
 70
     1
102
RTVSPost2010Prop46
 90
       50
102
RTVSPost2010PropOp46
 70
     1
102
RTVSPost2010Prop47
 90
       50
102
RTVSPost2010PropOp47
 70
     1
102
RTVSPost2010Prop48
 90
       50
102
RTVSPost2010PropOp48
 70
     1
102
RTVSPost2010Prop49
280
     0
102
RTVSPost2010PropOp49
 70
     1
102
RTVSPost2010Prop50
 90
       50
102
RTVSPost2010PropOp50
 70
     1
102
RTVSPost2010Prop51ColorIndex
 90
      256
102
RTVSPost2010Prop51ColorRGB
 90
-16777216
102
RTVSPost2010PropOp51
 70
     0
102
RTVSPost2010Prop52
140
1.0
102
RTVSPost2010PropOp52
 70
     0
102
RTVSPost2010Prop53
 90
        2
102
RTVSPost2010PropOp53
 70
     1
102
RTVSPost2010Prop54
  1
strokes_ogs.tif
102
RTVSPost2010PropOp54
 70
     1
102
RTVSPost2010Prop55
280
     0
102
RTVSPost2010PropOp55
 70
     1
102
RTVSPost2010Prop56
140
1.0
102
RTVSPost2010PropOp56
 70
     1
102
RTVSPost2010Prop57
140
1.0
102
RTVSPost2010PropOp57
 70
     1
102
RTVSPropertyOp0
 70
     1
102
RTVSPropertyOp1
 70
     1
102
RTVSPropertyOp2
 70
     1
102
RTVSPropertyOp3
 70
     1
102
RTVSPropertyOp4
 70
     1
102
RTVSPropertyOp5
 70
     1
102
RTVSPropertyOp6
 70
     1
102
RTVSPropertyOp7
 70
     1
102
RTVSPropertyOp8
 70
     1
102
RTVSPropertyOp9
 70
     1
102
RTVSPropertyOp10
 70
     1
102
RTVSPropertyOp11
 70
     1
102
RTVSPropertyOp12
 70
     1
102
RTVSPropertyOp13
 70
     1
102
RTVSPropertyOp14
 70
     1
102
RTVSPropertyOp15
 70
     1
102
RTVSPropertyOp16
 70
     1
102
RTVSPropertyOp17
 70
     1
102
RTVSPropertyOp18
 70
     1
102
RTVSPropertyOp19
 70
     1
102
RTVSPropertyOp20
 70
     1
102
RTVSPropertyOp21
 70
     1
102
RTVSPropertyOp22
 70
     1
102
RTVSPropertyOp23
 70
     1
102
RTVSPropertyOp24
 70
     1
102
RTVSPropertyOp25
 70
     1
102
RTVSPropertyOp26
 70
     1
102
RTVSPropertyOp27
 70
     1
102
RTVSPropertyOp28
 70
     1
102
RTVSPropertyOp29
 70
     1
102
RTVSPropertyOp30
 70
     1
102
RTVSPropertyOp31
 70
     1
102
RTVSPropertyOp32
 70
     1
102
RTVSPropertyOp33
 70
     1
102
RTVSPropertyOp34
 70
     1
102
RTVSPropertyOp35
 70
     1
102
RTVSPropertyOp36
 70
     1
102
RTVSPropertyOp37
 70
     1
102
RTVSPropertyOp38
 70
     1
102
RTVSPropertyOp39
 70
     1
102
RTVSPropertyOp40
 70
     1
102
RTVSPropertyOp41
 70
     1
102
RTVSPropertyOp42
 70
     1
102
RTVSPropertyOp43
 70
     1
102
RTVSPropertyOp44
 70
     1
102
RTVSPropertyOp45
 70
     1
102
RTVSPropertyOp46
 70
     1
102
RTVSPropertyOp47
 70
     1
102
RTVSPropertyOp48
 70
     1
102
RTVSPropertyOp49
 70
     1
102
RTVSPropertyOp50
 70
     1
102
RTVSPropertyOp51
 70
     0
102
RTVSPropertyOp52
 70
     0
102
RTVSPropertyOp53
 70
     1
102
RTVSPropertyOp54
 70
     1
102
RTVSPropertyOp55
 70
     1
102
RTVSPropertyOp56
 70
     1
102
RTVSPropertyOp57
 70
     1
102
RTVSPropertyOp58
 70
     1
102
RTVSPropertyOp59
 70
     1
102
RTVSPropertyOp60
 70
     1
102
RTVSPropertyOp61
 70
     1
102
RTVSPropertyOp62
 70
     1
  0
XRECORD
  5
16600
102
{ACAD_REACTORS
330
165FF
102
}
330
165FF
100
AcDbXrecord
280
     1
102
RTVSPost2010Prop28
280
     0
102
RTVSPost2010PropOp28
 70
     0
102
RTVSPost2010Prop29
280
     1
102
RTVSPost2010PropOp29
 70
     0
102
RTVSPost2010Prop30
280
     1
102
RTVSPost2010PropOp30
 70
     0
102
RTVSPost2010Prop31
280
     0
102
RTVSPost2010PropOp31
 70
     0
102
RTVSPost2010Prop32
280
     0
102
RTVSPost2010PropOp32
 70
     0
102
RTVSPost2010Prop33
280
     0
102
RTVSPost2010PropOp33
 70
     0
102
RTVSPost2010Prop34
280
     0
102
RTVSPost2010PropOp34
 70
     0
102
RTVSPost2010Prop35
280
     0
102
RTVSPost2010PropOp35
 70
     0
102
RTVSPost2010Prop36
280
     0
102
RTVSPost2010PropOp36
 70
     0
102
RTVSPost2010Prop37
 90
       50
102
RTVSPost2010PropOp37
 70
     0
102
RTVSPost2010Prop38
140
0.0
102
RTVSPost2010PropOp38
 70
     0
102
RTVSPost2010Prop39
140
1.0
102
RTVSPost2010PropOp39
 70
     0
102
RTVSPost2010Prop40
 90
        0
102
RTVSPost2010PropOp40
 70
     0
102
RTVSPost2010Prop41ColorIndex
 90
       18
102
RTVSPost2010Prop41ColorRGB
 90
        0
102
RTVSPost2010PropOp41
 70
     0
102
RTVSPost2010Prop42
 90
       50
102
RTVSPost2010PropOp42
 70
     0
102
RTVSPost2010Prop43
 90
        3
102
RTVSPost2010PropOp43
 70
     0
102
RTVSPost2010Prop44ColorIndex
 90
        5
102
RTVSPost2010Prop44ColorRGB
 90
      255
102
RTVSPost2010PropOp44
 70
     0
102
RTVSPost2010Prop45
280
     0
102
RTVSPost2010PropOp45
 70
     0
102
RTVSPost2010Prop46
 90
       50
102
RTVSPost2010PropOp46
 70
     0
102
RTVSPost2010Prop47
 90
       50
102
RTVSPost2010PropOp47
 70
     0
102
RTVSPost2010Prop48
 90
       50
102
RTVSPost2010PropOp48
 70
     0
102
RTVSPost2010Prop49
280
     0
102
RTVSPost2010PropOp49
 70
     0
102
RTVSPost2010Prop50
 90
       50
102
RTVSPost2010PropOp50
 70
     0
102
RTVSPost2010Prop51ColorIndex
 90
      256
102
RTVSPost2010Prop51ColorRGB
 90
-16777216
102
RTVSPost2010PropOp51
 70
     0
102
RTVSPost2010Prop52
140
1.0
102
RTVSPost2010PropOp52
 70
     0
102
RTVSPost2010Prop53
 90
        2
102
RTVSPost2010PropOp53
 70
     0
102
RTVSPost2010Prop54
  1
strokes_ogs.tif
102
RTVSPost2010PropOp54
 70
     0
102
RTVSPost2010Prop55
280
     0
102
RTVSPost2010PropOp55
 70
     0
102
RTVSPost2010Prop56
140
1.0
102
RTVSPost2010PropOp56
 70
     0
102
RTVSPost2010Prop57
140
1.0
102
RTVSPost2010PropOp57
 70
     0
102
RTVSPropertyOp0
 70
     0
102
RTVSPropertyOp1
 70
     0
102
RTVSPropertyOp2
 70
     0
102
RTVSPropertyOp3
 70
     0
102
RTVSPropertyOp4
 70
     0
102
RTVSPropertyOp5
 70
     0
102
RTVSPropertyOp6
 70
     0
102
RTVSPropertyOp7
 70
     0
102
RTVSPropertyOp8
 70
     0
102
RTVSPropertyOp9
 70
     0
102
RTVSPropertyOp10
 70
     0
102
RTVSPropertyOp11
 70
     0
102
RTVSPropertyOp12
 70
     0
102
RTVSPropertyOp13
 70
     0
102
RTVSPropertyOp14
 70
     2
102
RTVSPropertyOp15
 70
     0
102
RTVSPropertyOp16
 70
     0
102
RTVSPropertyOp17
 70
     0
102
RTVSPropertyOp18
 70
     0
102
RTVSPropertyOp19
 70
     0
102
RTVSPropertyOp20
 70
     0
102
RTVSPropertyOp21
 70
     0
102
RTVSPropertyOp22
 70
     0
102
RTVSPropertyOp23
 70
     0
102
RTVSPropertyOp24
 70
     0
102
RTVSPropertyOp25
 70
     0
102
RTVSPropertyOp26
 70
     0
102
RTVSPropertyOp27
 70
     0
102
RTVSPropertyOp28
 70
     0
102
RTVSPropertyOp29
 70
     0
102
RTVSPropertyOp30
 70
     0
102
RTVSPropertyOp31
 70
     0
102
RTVSPropertyOp32
 70
     0
102
RTVSPropertyOp33
 70
     0
102
RTVSPropertyOp34
 70
     0
102
RTVSPropertyOp35
 70
     0
102
RTVSPropertyOp36
 70
     0
102
RTVSPropertyOp37
 70
     0
102
RTVSPropertyOp38
 70
     0
102
RTVSPropertyOp39
 70
     0
102
RTVSPropertyOp40
 70
     0
102
RTVSPropertyOp41
 70
     0
102
RTVSPropertyOp42
 70
     0
102
RTVSPropertyOp43
 70
     0
102
RTVSPropertyOp44
 70
     0
102
RTVSPropertyOp45
 70
     0
102
RTVSPropertyOp46
 70
     0
102
RTVSPropertyOp47
 70
     0
102
RTVSPropertyOp48
 70
     0
102
RTVSPropertyOp49
 70
     0
102
RTVSPropertyOp50
 70
     0
102
RTVSPropertyOp51
 70
     0
102
RTVSPropertyOp52
 70
     0
102
RTVSPropertyOp53
 70
     0
102
RTVSPropertyOp54
 70
     0
102
RTVSPropertyOp55
 70
     0
102
RTVSPropertyOp56
 70
     0
102
RTVSPropertyOp57
 70
     0
102
RTVSPropertyOp58
 70
     0
102
RTVSPropertyOp59
 70
     0
102
RTVSPropertyOp60
 70
     0
102
RTVSPropertyOp61
 70
     0
102
RTVSPropertyOp62
 70
     0
  0
XRECORD
  5
165EA
102
{ACAD_REACTORS
330
165E9
102
}
330
165E9
100
AcDbXrecord
280
     1
102
RTVSPost2010Prop28
280
     0
102
RTVSPost2010PropOp28
 70
     1
102
RTVSPost2010Prop29
280
     1
102
RTVSPost2010PropOp29
 70
     1
102
RTVSPost2010Prop30
280
     1
102
RTVSPost2010PropOp30
 70
     1
102
RTVSPost2010Prop31
280
     0
102
RTVSPost2010PropOp31
 70
     1
102
RTVSPost2010Prop32
280
     0
102
RTVSPost2010PropOp32
 70
     1
102
RTVSPost2010Prop33
280
     0
102
RTVSPost2010PropOp33
 70
     1
102
RTVSPost2010Prop34
280
     0
102
RTVSPost2010PropOp34
 70
     1
102
RTVSPost2010Prop35
280
     0
102
RTVSPost2010PropOp35
 70
     1
102
RTVSPost2010Prop36
280
     0
102
RTVSPost2010PropOp36
 70
     1
102
RTVSPost2010Prop37
 90
       50
102
RTVSPost2010PropOp37
 70
     1
102
RTVSPost2010Prop38
140
0.0
102
RTVSPost2010PropOp38
 70
     1
102
RTVSPost2010Prop39
140
1.0
102
RTVSPost2010PropOp39
 70
     1
102
RTVSPost2010Prop40
 90
        0
102
RTVSPost2010PropOp40
 70
     1
102
RTVSPost2010Prop41ColorIndex
 90
       18
102
RTVSPost2010Prop41ColorRGB
 90
        0
102
RTVSPost2010PropOp41
 70
     1
102
RTVSPost2010Prop42
 90
       50
102
RTVSPost2010PropOp42
 70
     1
102
RTVSPost2010Prop43
 90
        3
102
RTVSPost2010PropOp43
 70
     1
102
RTVSPost2010Prop44ColorIndex
 90
        5
102
RTVSPost2010Prop44ColorRGB
 90
      255
102
RTVSPost2010PropOp44
 70
     1
102
RTVSPost2010Prop45
280
     0
102
RTVSPost2010PropOp45
 70
     1
102
RTVSPost2010Prop46
 90
       50
102
RTVSPost2010PropOp46
 70
     1
102
RTVSPost2010Prop47
 90
       50
102
RTVSPost2010PropOp47
 70
     1
102
RTVSPost2010Prop48
 90
       50
102
RTVSPost2010PropOp48
 70
     1
102
RTVSPost2010Prop49
280
     0
102
RTVSPost2010PropOp49
 70
     1
102
RTVSPost2010Prop50
 90
       50
102
RTVSPost2010PropOp50
 70
     1
102
RTVSPost2010Prop51ColorIndex
 90
      256
102
RTVSPost2010Prop51ColorRGB
 90
-16777216
102
RTVSPost2010PropOp51
 70
     0
102
RTVSPost2010Prop52
140
1.0
102
RTVSPost2010PropOp52
 70
     0
102
RTVSPost2010Prop53
 90
        2
102
RTVSPost2010PropOp53
 70
     1
102
RTVSPost2010Prop54
  1
strokes_ogs.tif
102
RTVSPost2010PropOp54
 70
     1
102
RTVSPost2010Prop55
280
     0
102
RTVSPost2010PropOp55
 70
     1
102
RTVSPost2010Prop56
140
1.0
102
RTVSPost2010PropOp56
 70
     1
102
RTVSPost2010Prop57
140
1.0
102
RTVSPost2010PropOp57
 70
     1
102
RTVSPropertyOp0
 70
     1
102
RTVSPropertyOp1
 70
     1
102
RTVSPropertyOp2
 70
     1
102
RTVSPropertyOp3
 70
     1
102
RTVSPropertyOp4
 70
     1
102
RTVSPropertyOp5
 70
     1
102
RTVSPropertyOp6
 70
     1
102
RTVSPropertyOp7
 70
     1
102
RTVSPropertyOp8
 70
     1
102
RTVSPropertyOp9
 70
     1
102
RTVSPropertyOp10
 70
     1
102
RTVSPropertyOp11
 70
     1
102
RTVSPropertyOp12
 70
     1
102
RTVSPropertyOp13
 70
     1
102
RTVSPropertyOp14
 70
     1
102
RTVSPropertyOp15
 70
     1
102
RTVSPropertyOp16
 70
     1
102
RTVSPropertyOp17
 70
     1
102
RTVSPropertyOp18
 70
     1
102
RTVSPropertyOp19
 70
     1
102
RTVSPropertyOp20
 70
     1
102
RTVSPropertyOp21
 70
     1
102
RTVSPropertyOp22
 70
     1
102
RTVSPropertyOp23
 70
     1
102
RTVSPropertyOp24
 70
     1
102
RTVSPropertyOp25
 70
     1
102
RTVSPropertyOp26
 70
     1
102
RTVSPropertyOp27
 70
     1
102
RTVSPropertyOp28
 70
     1
102
RTVSPropertyOp29
 70
     1
102
RTVSPropertyOp30
 70
     1
102
RTVSPropertyOp31
 70
     1
102
RTVSPropertyOp32
 70
     1
102
RTVSPropertyOp33
 70
     1
102
RTVSPropertyOp34
 70
     1
102
RTVSPropertyOp35
 70
     1
102
RTVSPropertyOp36
 70
     1
102
RTVSPropertyOp37
 70
     1
102
RTVSPropertyOp38
 70
     1
102
RTVSPropertyOp39
 70
     1
102
RTVSPropertyOp40
 70
     1
102
RTVSPropertyOp41
 70
     1
102
RTVSPropertyOp42
 70
     1
102
RTVSPropertyOp43
 70
     1
102
RTVSPropertyOp44
 70
     1
102
RTVSPropertyOp45
 70
     1
102
RTVSPropertyOp46
 70
     1
102
RTVSPropertyOp47
 70
     1
102
RTVSPropertyOp48
 70
     1
102
RTVSPropertyOp49
 70
     1
102
RTVSPropertyOp50
 70
     1
102
RTVSPropertyOp51
 70
     0
102
RTVSPropertyOp52
 70
     0
102
RTVSPropertyOp53
 70
     1
102
RTVSPropertyOp54
 70
     1
102
RTVSPropertyOp55
 70
     1
102
RTVSPropertyOp56
 70
     1
102
RTVSPropertyOp57
 70
     1
102
RTVSPropertyOp58
 70
     1
102
RTVSPropertyOp59
 70
     1
102
RTVSPropertyOp60
 70
     1
102
RTVSPropertyOp61
 70
     1
102
RTVSPropertyOp62
 70
     1
  0
XRECORD
  5
165CE
102
{ACAD_REACTORS
330
165CD
102
}
330
165CD
100
AcDbXrecord
280
     1
102
RTVSPost2010Prop28
280
     0
102
RTVSPost2010PropOp28
 70
     1
102
RTVSPost2010Prop29
280
     1
102
RTVSPost2010PropOp29
 70
     1
102
RTVSPost2010Prop30
280
     1
102
RTVSPost2010PropOp30
 70
     1
102
RTVSPost2010Prop31
280
     0
102
RTVSPost2010PropOp31
 70
     1
102
RTVSPost2010Prop32
280
     0
102
RTVSPost2010PropOp32
 70
     1
102
RTVSPost2010Prop33
280
     0
102
RTVSPost2010PropOp33
 70
     1
102
RTVSPost2010Prop34
280
     0
102
RTVSPost2010PropOp34
 70
     1
102
RTVSPost2010Prop35
280
     0
102
RTVSPost2010PropOp35
 70
     1
102
RTVSPost2010Prop36
280
     0
102
RTVSPost2010PropOp36
 70
     1
102
RTVSPost2010Prop37
 90
       50
102
RTVSPost2010PropOp37
 70
     1
102
RTVSPost2010Prop38
140
0.0
102
RTVSPost2010PropOp38
 70
     1
102
RTVSPost2010Prop39
140
1.0
102
RTVSPost2010PropOp39
 70
     1
102
RTVSPost2010Prop40
 90
        0
102
RTVSPost2010PropOp40
 70
     1
102
RTVSPost2010Prop41ColorIndex
 90
       18
102
RTVSPost2010Prop41ColorRGB
 90
        0
102
RTVSPost2010PropOp41
 70
     1
102
RTVSPost2010Prop42
 90
       50
102
RTVSPost2010PropOp42
 70
     1
102
RTVSPost2010Prop43
 90
        3
102
RTVSPost2010PropOp43
 70
     1
102
RTVSPost2010Prop44ColorIndex
 90
        5
102
RTVSPost2010Prop44ColorRGB
 90
      255
102
RTVSPost2010PropOp44
 70
     1
102
RTVSPost2010Prop45
280
     0
102
RTVSPost2010PropOp45
 70
     1
102
RTVSPost2010Prop46
 90
       50
102
RTVSPost2010PropOp46
 70
     1
102
RTVSPost2010Prop47
 90
       50
102
RTVSPost2010PropOp47
 70
     1
102
RTVSPost2010Prop48
 90
       50
102
RTVSPost2010PropOp48
 70
     1
102
RTVSPost2010Prop49
280
     0
102
RTVSPost2010PropOp49
 70
     1
102
RTVSPost2010Prop50
 90
       50
102
RTVSPost2010PropOp50
 70
     1
102
RTVSPost2010Prop51ColorIndex
 90
      256
102
RTVSPost2010Prop51ColorRGB
 90
-16777216
102
RTVSPost2010PropOp51
 70
     0
102
RTVSPost2010Prop52
140
1.0
102
RTVSPost2010PropOp52
 70
     0
102
RTVSPost2010Prop53
 90
        2
102
RTVSPost2010PropOp53
 70
     1
102
RTVSPost2010Prop54
  1
strokes_ogs.tif
102
RTVSPost2010PropOp54
 70
     1
102
RTVSPost2010Prop55
280
     0
102
RTVSPost2010PropOp55
 70
     1
102
RTVSPost2010Prop56
140
1.0
102
RTVSPost2010PropOp56
 70
     1
102
RTVSPost2010Prop57
140
1.0
102
RTVSPost2010PropOp57
 70
     1
102
RTVSPropertyOp0
 70
     1
102
RTVSPropertyOp1
 70
     1
102
RTVSPropertyOp2
 70
     1
102
RTVSPropertyOp3
 70
     1
102
RTVSPropertyOp4
 70
     1
102
RTVSPropertyOp5
 70
     1
102
RTVSPropertyOp6
 70
     1
102
RTVSPropertyOp7
 70
     1
102
RTVSPropertyOp8
 70
     1
102
RTVSPropertyOp9
 70
     1
102
RTVSPropertyOp10
 70
     1
102
RTVSPropertyOp11
 70
     1
102
RTVSPropertyOp12
 70
     1
102
RTVSPropertyOp13
 70
     1
102
RTVSPropertyOp14
 70
     1
102
RTVSPropertyOp15
 70
     1
102
RTVSPropertyOp16
 70
     1
102
RTVSPropertyOp17
 70
     1
102
RTVSPropertyOp18
 70
     1
102
RTVSPropertyOp19
 70
     1
102
RTVSPropertyOp20
 70
     1
102
RTVSPropertyOp21
 70
     1
102
RTVSPropertyOp22
 70
     1
102
RTVSPropertyOp23
 70
     1
102
RTVSPropertyOp24
 70
     1
102
RTVSPropertyOp25
 70
     1
102
RTVSPropertyOp26
 70
     1
102
RTVSPropertyOp27
 70
     1
102
RTVSPropertyOp28
 70
     1
102
RTVSPropertyOp29
 70
     1
102
RTVSPropertyOp30
 70
     1
102
RTVSPropertyOp31
 70
     1
102
RTVSPropertyOp32
 70
     1
102
RTVSPropertyOp33
 70
     1
102
RTVSPropertyOp34
 70
     1
102
RTVSPropertyOp35
 70
     1
102
RTVSPropertyOp36
 70
     1
102
RTVSPropertyOp37
 70
     1
102
RTVSPropertyOp38
 70
     1
102
RTVSPropertyOp39
 70
     1
102
RTVSPropertyOp40
 70
     1
102
RTVSPropertyOp41
 70
     1
102
RTVSPropertyOp42
 70
     1
102
RTVSPropertyOp43
 70
     1
102
RTVSPropertyOp44
 70
     1
102
RTVSPropertyOp45
 70
     1
102
RTVSPropertyOp46
 70
     1
102
RTVSPropertyOp47
 70
     1
102
RTVSPropertyOp48
 70
     1
102
RTVSPropertyOp49
 70
     1
102
RTVSPropertyOp50
 70
     1
102
RTVSPropertyOp51
 70
     0
102
RTVSPropertyOp52
 70
     0
102
RTVSPropertyOp53
 70
     1
102
RTVSPropertyOp54
 70
     1
102
RTVSPropertyOp55
 70
     1
102
RTVSPropertyOp56
 70
     1
102
RTVSPropertyOp57
 70
     1
102
RTVSPropertyOp58
 70
     1
102
RTVSPropertyOp59
 70
     1
102
RTVSPropertyOp60
 70
     1
102
RTVSPropertyOp61
 70
     1
102
RTVSPropertyOp62
 70
     1
  0
XRECORD
  5
165D0
102
{ACAD_REACTORS
330
165CF
102
}
330
165CF
100
AcDbXrecord
280
     1
102
RTVSPost2010Prop28
280
     0
102
RTVSPost2010PropOp28
 70
     1
102
RTVSPost2010Prop29
280
     1
102
RTVSPost2010PropOp29
 70
     1
102
RTVSPost2010Prop30
280
     1
102
RTVSPost2010PropOp30
 70
     1
102
RTVSPost2010Prop31
280
     0
102
RTVSPost2010PropOp31
 70
     1
102
RTVSPost2010Prop32
280
     0
102
RTVSPost2010PropOp32
 70
     1
102
RTVSPost2010Prop33
280
     0
102
RTVSPost2010PropOp33
 70
     1
102
RTVSPost2010Prop34
280
     0
102
RTVSPost2010PropOp34
 70
     1
102
RTVSPost2010Prop35
280
     0
102
RTVSPost2010PropOp35
 70
     1
102
RTVSPost2010Prop36
280
     0
102
RTVSPost2010PropOp36
 70
     1
102
RTVSPost2010Prop37
 90
       50
102
RTVSPost2010PropOp37
 70
     1
102
RTVSPost2010Prop38
140
0.0
102
RTVSPost2010PropOp38
 70
     1
102
RTVSPost2010Prop39
140
1.0
102
RTVSPost2010PropOp39
 70
     1
102
RTVSPost2010Prop40
 90
        0
102
RTVSPost2010PropOp40
 70
     1
102
RTVSPost2010Prop41ColorIndex
 90
       18
102
RTVSPost2010Prop41ColorRGB
 90
        0
102
RTVSPost2010PropOp41
 70
     1
102
RTVSPost2010Prop42
 90
       50
102
RTVSPost2010PropOp42
 70
     1
102
RTVSPost2010Prop43
 90
        3
102
RTVSPost2010PropOp43
 70
     1
102
RTVSPost2010Prop44ColorIndex
 90
        5
102
RTVSPost2010Prop44ColorRGB
 90
      255
102
RTVSPost2010PropOp44
 70
     1
102
RTVSPost2010Prop45
280
     0
102
RTVSPost2010PropOp45
 70
     1
102
RTVSPost2010Prop46
 90
       50
102
RTVSPost2010PropOp46
 70
     1
102
RTVSPost2010Prop47
 90
       50
102
RTVSPost2010PropOp47
 70
     1
102
RTVSPost2010Prop48
 90
       50
102
RTVSPost2010PropOp48
 70
     1
102
RTVSPost2010Prop49
280
     0
102
RTVSPost2010PropOp49
 70
     1
102
RTVSPost2010Prop50
 90
       50
102
RTVSPost2010PropOp50
 70
     1
102
RTVSPost2010Prop51ColorIndex
 90
      256
102
RTVSPost2010Prop51ColorRGB
 90
-16777216
102
RTVSPost2010PropOp51
 70
     0
102
RTVSPost2010Prop52
140
1.0
102
RTVSPost2010PropOp52
 70
     0
102
RTVSPost2010Prop53
 90
        2
102
RTVSPost2010PropOp53
 70
     1
102
RTVSPost2010Prop54
  1
strokes_ogs.tif
102
RTVSPost2010PropOp54
 70
     1
102
RTVSPost2010Prop55
280
     0
102
RTVSPost2010PropOp55
 70
     1
102
RTVSPost2010Prop56
140
1.0
102
RTVSPost2010PropOp56
 70
     1
102
RTVSPost2010Prop57
140
1.0
102
RTVSPost2010PropOp57
 70
     1
102
RTVSPropertyOp0
 70
     1
102
RTVSPropertyOp1
 70
     1
102
RTVSPropertyOp2
 70
     1
102
RTVSPropertyOp3
 70
     1
102
RTVSPropertyOp4
 70
     1
102
RTVSPropertyOp5
 70
     1
102
RTVSPropertyOp6
 70
     1
102
RTVSPropertyOp7
 70
     1
102
RTVSPropertyOp8
 70
     1
102
RTVSPropertyOp9
 70
     1
102
RTVSPropertyOp10
 70
     1
102
RTVSPropertyOp11
 70
     1
102
RTVSPropertyOp12
 70
     1
102
RTVSPropertyOp13
 70
     1
102
RTVSPropertyOp14
 70
     1
102
RTVSPropertyOp15
 70
     1
102
RTVSPropertyOp16
 70
     1
102
RTVSPropertyOp17
 70
     1
102
RTVSPropertyOp18
 70
     1
102
RTVSPropertyOp19
 70
     1
102
RTVSPropertyOp20
 70
     1
102
RTVSPropertyOp21
 70
     1
102
RTVSPropertyOp22
 70
     1
102
RTVSPropertyOp23
 70
     1
102
RTVSPropertyOp24
 70
     1
102
RTVSPropertyOp25
 70
     1
102
RTVSPropertyOp26
 70
     1
102
RTVSPropertyOp27
 70
     1
102
RTVSPropertyOp28
 70
     1
102
RTVSPropertyOp29
 70
     1
102
RTVSPropertyOp30
 70
     1
102
RTVSPropertyOp31
 70
     1
102
RTVSPropertyOp32
 70
     1
102
RTVSPropertyOp33
 70
     1
102
RTVSPropertyOp34
 70
     1
102
RTVSPropertyOp35
 70
     1
102
RTVSPropertyOp36
 70
     1
102
RTVSPropertyOp37
 70
     1
102
RTVSPropertyOp38
 70
     1
102
RTVSPropertyOp39
 70
     1
102
RTVSPropertyOp40
 70
     1
102
RTVSPropertyOp41
 70
     1
102
RTVSPropertyOp42
 70
     1
102
RTVSPropertyOp43
 70
     1
102
RTVSPropertyOp44
 70
     1
102
RTVSPropertyOp45
 70
     1
102
RTVSPropertyOp46
 70
     1
102
RTVSPropertyOp47
 70
     1
102
RTVSPropertyOp48
 70
     1
102
RTVSPropertyOp49
 70
     1
102
RTVSPropertyOp50
 70
     1
102
RTVSPropertyOp51
 70
     0
102
RTVSPropertyOp52
 70
     0
102
RTVSPropertyOp53
 70
     1
102
RTVSPropertyOp54
 70
     1
102
RTVSPropertyOp55
 70
     1
102
RTVSPropertyOp56
 70
     1
102
RTVSPropertyOp57
 70
     1
102
RTVSPropertyOp58
 70
     1
102
RTVSPropertyOp59
 70
     1
102
RTVSPropertyOp60
 70
     1
102
RTVSPropertyOp61
 70
     1
102
RTVSPropertyOp62
 70
     1
  0
XRECORD
  5
165D2
102
{ACAD_REACTORS
330
165D1
102
}
330
165D1
100
AcDbXrecord
280
     1
102
RTVSPost2010Prop28
280
     0
102
RTVSPost2010PropOp28
 70
     1
102
RTVSPost2010Prop29
280
     1
102
RTVSPost2010PropOp29
 70
     1
102
RTVSPost2010Prop30
280
     1
102
RTVSPost2010PropOp30
 70
     1
102
RTVSPost2010Prop31
280
     0
102
RTVSPost2010PropOp31
 70
     1
102
RTVSPost2010Prop32
280
     0
102
RTVSPost2010PropOp32
 70
     1
102
RTVSPost2010Prop33
280
     0
102
RTVSPost2010PropOp33
 70
     1
102
RTVSPost2010Prop34
280
     0
102
RTVSPost2010PropOp34
 70
     1
102
RTVSPost2010Prop35
280
     0
102
RTVSPost2010PropOp35
 70
     1
102
RTVSPost2010Prop36
280
     0
102
RTVSPost2010PropOp36
 70
     1
102
RTVSPost2010Prop37
 90
       50
102
RTVSPost2010PropOp37
 70
     1
102
RTVSPost2010Prop38
140
0.0
102
RTVSPost2010PropOp38
 70
     1
102
RTVSPost2010Prop39
140
1.0
102
RTVSPost2010PropOp39
 70
     1
102
RTVSPost2010Prop40
 90
        0
102
RTVSPost2010PropOp40
 70
     1
102
RTVSPost2010Prop41ColorIndex
 90
       18
102
RTVSPost2010Prop41ColorRGB
 90
        0
102
RTVSPost2010PropOp41
 70
     1
102
RTVSPost2010Prop42
 90
       50
102
RTVSPost2010PropOp42
 70
     1
102
RTVSPost2010Prop43
 90
        3
102
RTVSPost2010PropOp43
 70
     1
102
RTVSPost2010Prop44ColorIndex
 90
        5
102
RTVSPost2010Prop44ColorRGB
 90
      255
102
RTVSPost2010PropOp44
 70
     1
102
RTVSPost2010Prop45
280
     0
102
RTVSPost2010PropOp45
 70
     1
102
RTVSPost2010Prop46
 90
       50
102
RTVSPost2010PropOp46
 70
     1
102
RTVSPost2010Prop47
 90
       50
102
RTVSPost2010PropOp47
 70
     1
102
RTVSPost2010Prop48
 90
       50
102
RTVSPost2010PropOp48
 70
     1
102
RTVSPost2010Prop49
280
     0
102
RTVSPost2010PropOp49
 70
     1
102
RTVSPost2010Prop50
 90
       50
102
RTVSPost2010PropOp50
 70
     1
102
RTVSPost2010Prop51ColorIndex
 90
      256
102
RTVSPost2010Prop51ColorRGB
 90
-16777216
102
RTVSPost2010PropOp51
 70
     0
102
RTVSPost2010Prop52
140
1.0
102
RTVSPost2010PropOp52
 70
     0
102
RTVSPost2010Prop53
 90
        2
102
RTVSPost2010PropOp53
 70
     1
102
RTVSPost2010Prop54
  1
strokes_ogs.tif
102
RTVSPost2010PropOp54
 70
     1
102
RTVSPost2010Prop55
280
     0
102
RTVSPost2010PropOp55
 70
     1
102
RTVSPost2010Prop56
140
1.0
102
RTVSPost2010PropOp56
 70
     1
102
RTVSPost2010Prop57
140
1.0
102
RTVSPost2010PropOp57
 70
     1
102
RTVSPropertyOp0
 70
     1
102
RTVSPropertyOp1
 70
     1
102
RTVSPropertyOp2
 70
     1
102
RTVSPropertyOp3
 70
     1
102
RTVSPropertyOp4
 70
     1
102
RTVSPropertyOp5
 70
     1
102
RTVSPropertyOp6
 70
     1
102
RTVSPropertyOp7
 70
     1
102
RTVSPropertyOp8
 70
     1
102
RTVSPropertyOp9
 70
     1
102
RTVSPropertyOp10
 70
     1
102
RTVSPropertyOp11
 70
     1
102
RTVSPropertyOp12
 70
     1
102
RTVSPropertyOp13
 70
     1
102
RTVSPropertyOp14
 70
     1
102
RTVSPropertyOp15
 70
     1
102
RTVSPropertyOp16
 70
     1
102
RTVSPropertyOp17
 70
     1
102
RTVSPropertyOp18
 70
     1
102
RTVSPropertyOp19
 70
     1
102
RTVSPropertyOp20
 70
     1
102
RTVSPropertyOp21
 70
     1
102
RTVSPropertyOp22
 70
     1
102
RTVSPropertyOp23
 70
     1
102
RTVSPropertyOp24
 70
     1
102
RTVSPropertyOp25
 70
     1
102
RTVSPropertyOp26
 70
     1
102
RTVSPropertyOp27
 70
     1
102
RTVSPropertyOp28
 70
     1
102
RTVSPropertyOp29
 70
     1
102
RTVSPropertyOp30
 70
     1
102
RTVSPropertyOp31
 70
     1
102
RTVSPropertyOp32
 70
     1
102
RTVSPropertyOp33
 70
     1
102
RTVSPropertyOp34
 70
     1
102
RTVSPropertyOp35
 70
     1
102
RTVSPropertyOp36
 70
     1
102
RTVSPropertyOp37
 70
     1
102
RTVSPropertyOp38
 70
     1
102
RTVSPropertyOp39
 70
     1
102
RTVSPropertyOp40
 70
     1
102
RTVSPropertyOp41
 70
     1
102
RTVSPropertyOp42
 70
     1
102
RTVSPropertyOp43
 70
     1
102
RTVSPropertyOp44
 70
     1
102
RTVSPropertyOp45
 70
     1
102
RTVSPropertyOp46
 70
     1
102
RTVSPropertyOp47
 70
     1
102
RTVSPropertyOp48
 70
     1
102
RTVSPropertyOp49
 70
     1
102
RTVSPropertyOp50
 70
     1
102
RTVSPropertyOp51
 70
     0
102
RTVSPropertyOp52
 70
     0
102
RTVSPropertyOp53
 70
     1
102
RTVSPropertyOp54
 70
     1
102
RTVSPropertyOp55
 70
     1
102
RTVSPropertyOp56
 70
     1
102
RTVSPropertyOp57
 70
     1
102
RTVSPropertyOp58
 70
     1
102
RTVSPropertyOp59
 70
     1
102
RTVSPropertyOp60
 70
     1
102
RTVSPropertyOp61
 70
     1
102
RTVSPropertyOp62
 70
     1
  0
XRECORD
  5
165D4
102
{ACAD_REACTORS
330
165D3
102
}
330
165D3
100
AcDbXrecord
280
     1
102
RTVSPost2010Prop28
280
     0
102
RTVSPost2010PropOp28
 70
     1
102
RTVSPost2010Prop29
280
     1
102
RTVSPost2010PropOp29
 70
     1
102
RTVSPost2010Prop30
280
     1
102
RTVSPost2010PropOp30
 70
     1
102
RTVSPost2010Prop31
280
     0
102
RTVSPost2010PropOp31
 70
     1
102
RTVSPost2010Prop32
280
     0
102
RTVSPost2010PropOp32
 70
     1
102
RTVSPost2010Prop33
280
     0
102
RTVSPost2010PropOp33
 70
     1
102
RTVSPost2010Prop34
280
     0
102
RTVSPost2010PropOp34
 70
     1
102
RTVSPost2010Prop35
280
     0
102
RTVSPost2010PropOp35
 70
     1
102
RTVSPost2010Prop36
280
     0
102
RTVSPost2010PropOp36
 70
     1
102
RTVSPost2010Prop37
 90
       50
102
RTVSPost2010PropOp37
 70
     1
102
RTVSPost2010Prop38
140
0.0
102
RTVSPost2010PropOp38
 70
     1
102
RTVSPost2010Prop39
140
1.0
102
RTVSPost2010PropOp39
 70
     1
102
RTVSPost2010Prop40
 90
        0
102
RTVSPost2010PropOp40
 70
     1
102
RTVSPost2010Prop41ColorIndex
 90
       18
102
RTVSPost2010Prop41ColorRGB
 90
        0
102
RTVSPost2010PropOp41
 70
     1
102
RTVSPost2010Prop42
 90
       50
102
RTVSPost2010PropOp42
 70
     1
102
RTVSPost2010Prop43
 90
        3
102
RTVSPost2010PropOp43
 70
     1
102
RTVSPost2010Prop44ColorIndex
 90
        5
102
RTVSPost2010Prop44ColorRGB
 90
      255
102
RTVSPost2010PropOp44
 70
     1
102
RTVSPost2010Prop45
280
     0
102
RTVSPost2010PropOp45
 70
     1
102
RTVSPost2010Prop46
 90
       50
102
RTVSPost2010PropOp46
 70
     1
102
RTVSPost2010Prop47
 90
       50
102
RTVSPost2010PropOp47
 70
     1
102
RTVSPost2010Prop48
 90
       50
102
RTVSPost2010PropOp48
 70
     1
102
RTVSPost2010Prop49
280
     0
102
RTVSPost2010PropOp49
 70
     1
102
RTVSPost2010Prop50
 90
       50
102
RTVSPost2010PropOp50
 70
     1
102
RTVSPost2010Prop51ColorIndex
 90
      256
102
RTVSPost2010Prop51ColorRGB
 90
-16777216
102
RTVSPost2010PropOp51
 70
     0
102
RTVSPost2010Prop52
140
1.0
102
RTVSPost2010PropOp52
 70
     0
102
RTVSPost2010Prop53
 90
        2
102
RTVSPost2010PropOp53
 70
     1
102
RTVSPost2010Prop54
  1
strokes_ogs.tif
102
RTVSPost2010PropOp54
 70
     1
102
RTVSPost2010Prop55
280
     0
102
RTVSPost2010PropOp55
 70
     1
102
RTVSPost2010Prop56
140
1.0
102
RTVSPost2010PropOp56
 70
     1
102
RTVSPost2010Prop57
140
1.0
102
RTVSPost2010PropOp57
 70
     1
102
RTVSPropertyOp0
 70
     1
102
RTVSPropertyOp1
 70
     1
102
RTVSPropertyOp2
 70
     1
102
RTVSPropertyOp3
 70
     1
102
RTVSPropertyOp4
 70
     1
102
RTVSPropertyOp5
 70
     1
102
RTVSPropertyOp6
 70
     1
102
RTVSPropertyOp7
 70
     1
102
RTVSPropertyOp8
 70
     1
102
RTVSPropertyOp9
 70
     1
102
RTVSPropertyOp10
 70
     1
102
RTVSPropertyOp11
 70
     1
102
RTVSPropertyOp12
 70
     1
102
RTVSPropertyOp13
 70
     1
102
RTVSPropertyOp14
 70
     1
102
RTVSPropertyOp15
 70
     1
102
RTVSPropertyOp16
 70
     1
102
RTVSPropertyOp17
 70
     1
102
RTVSPropertyOp18
 70
     1
102
RTVSPropertyOp19
 70
     1
102
RTVSPropertyOp20
 70
     1
102
RTVSPropertyOp21
 70
     1
102
RTVSPropertyOp22
 70
     1
102
RTVSPropertyOp23
 70
     1
102
RTVSPropertyOp24
 70
     1
102
RTVSPropertyOp25
 70
     1
102
RTVSPropertyOp26
 70
     1
102
RTVSPropertyOp27
 70
     1
102
RTVSPropertyOp28
 70
     1
102
RTVSPropertyOp29
 70
     1
102
RTVSPropertyOp30
 70
     1
102
RTVSPropertyOp31
 70
     1
102
RTVSPropertyOp32
 70
     1
102
RTVSPropertyOp33
 70
     1
102
RTVSPropertyOp34
 70
     1
102
RTVSPropertyOp35
 70
     1
102
RTVSPropertyOp36
 70
     1
102
RTVSPropertyOp37
 70
     1
102
RTVSPropertyOp38
 70
     1
102
RTVSPropertyOp39
 70
     1
102
RTVSPropertyOp40
 70
     1
102
RTVSPropertyOp41
 70
     1
102
RTVSPropertyOp42
 70
     1
102
RTVSPropertyOp43
 70
     1
102
RTVSPropertyOp44
 70
     1
102
RTVSPropertyOp45
 70
     1
102
RTVSPropertyOp46
 70
     1
102
RTVSPropertyOp47
 70
     1
102
RTVSPropertyOp48
 70
     1
102
RTVSPropertyOp49
 70
     1
102
RTVSPropertyOp50
 70
     1
102
RTVSPropertyOp51
 70
     0
102
RTVSPropertyOp52
 70
     0
102
RTVSPropertyOp53
 70
     1
102
RTVSPropertyOp54
 70
     1
102
RTVSPropertyOp55
 70
     1
102
RTVSPropertyOp56
 70
     1
102
RTVSPropertyOp57
 70
     1
102
RTVSPropertyOp58
 70
     1
102
RTVSPropertyOp59
 70
     1
102
RTVSPropertyOp60
 70
     1
102
RTVSPropertyOp61
 70
     1
102
RTVSPropertyOp62
 70
     1
  0
XRECORD
  5
165F0
102
{ACAD_REACTORS
330
165EF
102
}
330
165EF
100
AcDbXrecord
280
     1
102
RTVSPost2010Prop28
280
     0
102
RTVSPost2010PropOp28
 70
     1
102
RTVSPost2010Prop29
280
     1
102
RTVSPost2010PropOp29
 70
     1
102
RTVSPost2010Prop30
280
     1
102
RTVSPost2010PropOp30
 70
     1
102
RTVSPost2010Prop31
280
     0
102
RTVSPost2010PropOp31
 70
     1
102
RTVSPost2010Prop32
280
     0
102
RTVSPost2010PropOp32
 70
     1
102
RTVSPost2010Prop33
280
     0
102
RTVSPost2010PropOp33
 70
     1
102
RTVSPost2010Prop34
280
     0
102
RTVSPost2010PropOp34
 70
     1
102
RTVSPost2010Prop35
280
     0
102
RTVSPost2010PropOp35
 70
     1
102
RTVSPost2010Prop36
280
     0
102
RTVSPost2010PropOp36
 70
     1
102
RTVSPost2010Prop37
 90
       50
102
RTVSPost2010PropOp37
 70
     1
102
RTVSPost2010Prop38
140
0.0
102
RTVSPost2010PropOp38
 70
     1
102
RTVSPost2010Prop39
140
1.0
102
RTVSPost2010PropOp39
 70
     1
102
RTVSPost2010Prop40
 90
        0
102
RTVSPost2010PropOp40
 70
     1
102
RTVSPost2010Prop41ColorIndex
 90
       18
102
RTVSPost2010Prop41ColorRGB
 90
        0
102
RTVSPost2010PropOp41
 70
     1
102
RTVSPost2010Prop42
 90
       50
102
RTVSPost2010PropOp42
 70
     1
102
RTVSPost2010Prop43
 90
        3
102
RTVSPost2010PropOp43
 70
     1
102
RTVSPost2010Prop44ColorIndex
 90
        5
102
RTVSPost2010Prop44ColorRGB
 90
      255
102
RTVSPost2010PropOp44
 70
     1
102
RTVSPost2010Prop45
280
     0
102
RTVSPost2010PropOp45
 70
     1
102
RTVSPost2010Prop46
 90
       50
102
RTVSPost2010PropOp46
 70
     1
102
RTVSPost2010Prop47
 90
       50
102
RTVSPost2010PropOp47
 70
     1
102
RTVSPost2010Prop48
 90
       50
102
RTVSPost2010PropOp48
 70
     1
102
RTVSPost2010Prop49
280
     0
102
RTVSPost2010PropOp49
 70
     1
102
RTVSPost2010Prop50
 90
       50
102
RTVSPost2010PropOp50
 70
     1
102
RTVSPost2010Prop51ColorIndex
 90
      256
102
RTVSPost2010Prop51ColorRGB
 90
-16777216
102
RTVSPost2010PropOp51
 70
     0
102
RTVSPost2010Prop52
140
1.0
102
RTVSPost2010PropOp52
 70
     0
102
RTVSPost2010Prop53
 90
        2
102
RTVSPost2010PropOp53
 70
     1
102
RTVSPost2010Prop54
  1
strokes_ogs.tif
102
RTVSPost2010PropOp54
 70
     1
102
RTVSPost2010Prop55
280
     0
102
RTVSPost2010PropOp55
 70
     1
102
RTVSPost2010Prop56
140
1.0
102
RTVSPost2010PropOp56
 70
     1
102
RTVSPost2010Prop57
140
1.0
102
RTVSPost2010PropOp57
 70
     1
102
RTVSPropertyOp0
 70
     1
102
RTVSPropertyOp1
 70
     1
102
RTVSPropertyOp2
 70
     1
102
RTVSPropertyOp3
 70
     1
102
RTVSPropertyOp4
 70
     1
102
RTVSPropertyOp5
 70
     1
102
RTVSPropertyOp6
 70
     1
102
RTVSPropertyOp7
 70
     1
102
RTVSPropertyOp8
 70
     1
102
RTVSPropertyOp9
 70
     1
102
RTVSPropertyOp10
 70
     1
102
RTVSPropertyOp11
 70
     1
102
RTVSPropertyOp12
 70
     1
102
RTVSPropertyOp13
 70
     1
102
RTVSPropertyOp14
 70
     1
102
RTVSPropertyOp15
 70
     1
102
RTVSPropertyOp16
 70
     1
102
RTVSPropertyOp17
 70
     1
102
RTVSPropertyOp18
 70
     1
102
RTVSPropertyOp19
 70
     1
102
RTVSPropertyOp20
 70
     1
102
RTVSPropertyOp21
 70
     1
102
RTVSPropertyOp22
 70
     1
102
RTVSPropertyOp23
 70
     1
102
RTVSPropertyOp24
 70
     1
102
RTVSPropertyOp25
 70
     1
102
RTVSPropertyOp26
 70
     1
102
RTVSPropertyOp27
 70
     1
102
RTVSPropertyOp28
 70
     1
102
RTVSPropertyOp29
 70
     1
102
RTVSPropertyOp30
 70
     1
102
RTVSPropertyOp31
 70
     1
102
RTVSPropertyOp32
 70
     1
102
RTVSPropertyOp33
 70
     1
102
RTVSPropertyOp34
 70
     1
102
RTVSPropertyOp35
 70
     1
102
RTVSPropertyOp36
 70
     1
102
RTVSPropertyOp37
 70
     1
102
RTVSPropertyOp38
 70
     1
102
RTVSPropertyOp39
 70
     1
102
RTVSPropertyOp40
 70
     1
102
RTVSPropertyOp41
 70
     1
102
RTVSPropertyOp42
 70
     1
102
RTVSPropertyOp43
 70
     1
102
RTVSPropertyOp44
 70
     1
102
RTVSPropertyOp45
 70
     1
102
RTVSPropertyOp46
 70
     1
102
RTVSPropertyOp47
 70
     1
102
RTVSPropertyOp48
 70
     1
102
RTVSPropertyOp49
 70
     1
102
RTVSPropertyOp50
 70
     1
102
RTVSPropertyOp51
 70
     0
102
RTVSPropertyOp52
 70
     0
102
RTVSPropertyOp53
 70
     1
102
RTVSPropertyOp54
 70
     1
102
RTVSPropertyOp55
 70
     1
102
RTVSPropertyOp56
 70
     1
102
RTVSPropertyOp57
 70
     1
102
RTVSPropertyOp58
 70
     1
102
RTVSPropertyOp59
 70
     1
102
RTVSPropertyOp60
 70
     1
102
RTVSPropertyOp61
 70
     1
102
RTVSPropertyOp62
 70
     1
  0
XRECORD
  5
165FC
102
{ACAD_REACTORS
330
165FB
102
}
330
165FB
100
AcDbXrecord
280
     1
102
RTVSPost2010Prop28
280
     0
102
RTVSPost2010PropOp28
 70
     0
102
RTVSPost2010Prop29
280
     1
102
RTVSPost2010PropOp29
 70
     0
102
RTVSPost2010Prop30
280
     1
102
RTVSPost2010PropOp30
 70
     0
102
RTVSPost2010Prop31
280
     0
102
RTVSPost2010PropOp31
 70
     0
102
RTVSPost2010Prop32
280
     0
102
RTVSPost2010PropOp32
 70
     0
102
RTVSPost2010Prop33
280
     0
102
RTVSPost2010PropOp33
 70
     0
102
RTVSPost2010Prop34
280
     0
102
RTVSPost2010PropOp34
 70
     0
102
RTVSPost2010Prop35
280
     0
102
RTVSPost2010PropOp35
 70
     0
102
RTVSPost2010Prop36
280
     0
102
RTVSPost2010PropOp36
 70
     0
102
RTVSPost2010Prop37
 90
       50
102
RTVSPost2010PropOp37
 70
     0
102
RTVSPost2010Prop38
140
0.0
102
RTVSPost2010PropOp38
 70
     0
102
RTVSPost2010Prop39
140
1.0
102
RTVSPost2010PropOp39
 70
     0
102
RTVSPost2010Prop40
 90
        0
102
RTVSPost2010PropOp40
 70
     0
102
RTVSPost2010Prop41ColorIndex
 90
       18
102
RTVSPost2010Prop41ColorRGB
 90
        0
102
RTVSPost2010PropOp41
 70
     0
102
RTVSPost2010Prop42
 90
       50
102
RTVSPost2010PropOp42
 70
     0
102
RTVSPost2010Prop43
 90
        3
102
RTVSPost2010PropOp43
 70
     0
102
RTVSPost2010Prop44ColorIndex
 90
        5
102
RTVSPost2010Prop44ColorRGB
 90
      255
102
RTVSPost2010PropOp44
 70
     0
102
RTVSPost2010Prop45
280
     0
102
RTVSPost2010PropOp45
 70
     0
102
RTVSPost2010Prop46
 90
       50
102
RTVSPost2010PropOp46
 70
     0
102
RTVSPost2010Prop47
 90
       50
102
RTVSPost2010PropOp47
 70
     0
102
RTVSPost2010Prop48
 90
       50
102
RTVSPost2010PropOp48
 70
     0
102
RTVSPost2010Prop49
280
     0
102
RTVSPost2010PropOp49
 70
     0
102
RTVSPost2010Prop50
 90
       50
102
RTVSPost2010PropOp50
 70
     0
102
RTVSPost2010Prop51ColorIndex
 90
      256
102
RTVSPost2010Prop51ColorRGB
 90
-16777216
102
RTVSPost2010PropOp51
 70
     0
102
RTVSPost2010Prop52
140
1.0
102
RTVSPost2010PropOp52
 70
     0
102
RTVSPost2010Prop53
 90
        2
102
RTVSPost2010PropOp53
 70
     0
102
RTVSPost2010Prop54
  1
strokes_ogs.tif
102
RTVSPost2010PropOp54
 70
     0
102
RTVSPost2010Prop55
280
     0
102
RTVSPost2010PropOp55
 70
     0
102
RTVSPost2010Prop56
140
1.0
102
RTVSPost2010PropOp56
 70
     0
102
RTVSPost2010Prop57
140
1.0
102
RTVSPost2010PropOp57
 70
     0
102
RTVSPropertyOp0
 70
     0
102
RTVSPropertyOp1
 70
     0
102
RTVSPropertyOp2
 70
     0
102
RTVSPropertyOp3
 70
     0
102
RTVSPropertyOp4
 70
     0
102
RTVSPropertyOp5
 70
     0
102
RTVSPropertyOp6
 70
     0
102
RTVSPropertyOp7
 70
     0
102
RTVSPropertyOp8
 70
     0
102
RTVSPropertyOp9
 70
     0
102
RTVSPropertyOp10
 70
     0
102
RTVSPropertyOp11
 70
     0
102
RTVSPropertyOp12
 70
     0
102
RTVSPropertyOp13
 70
     0
102
RTVSPropertyOp14
 70
     2
102
RTVSPropertyOp15
 70
     0
102
RTVSPropertyOp16
 70
     0
102
RTVSPropertyOp17
 70
     0
102
RTVSPropertyOp18
 70
     0
102
RTVSPropertyOp19
 70
     0
102
RTVSPropertyOp20
 70
     0
102
RTVSPropertyOp21
 70
     0
102
RTVSPropertyOp22
 70
     0
102
RTVSPropertyOp23
 70
     0
102
RTVSPropertyOp24
 70
     0
102
RTVSPropertyOp25
 70
     0
102
RTVSPropertyOp26
 70
     0
102
RTVSPropertyOp27
 70
     0
102
RTVSPropertyOp28
 70
     0
102
RTVSPropertyOp29
 70
     0
102
RTVSPropertyOp30
 70
     0
102
RTVSPropertyOp31
 70
     0
102
RTVSPropertyOp32
 70
     0
102
RTVSPropertyOp33
 70
     0
102
RTVSPropertyOp34
 70
     0
102
RTVSPropertyOp35
 70
     0
102
RTVSPropertyOp36
 70
     0
102
RTVSPropertyOp37
 70
     0
102
RTVSPropertyOp38
 70
     0
102
RTVSPropertyOp39
 70
     0
102
RTVSPropertyOp40
 70
     0
102
RTVSPropertyOp41
 70
     0
102
RTVSPropertyOp42
 70
     0
102
RTVSPropertyOp43
 70
     0
102
RTVSPropertyOp44
 70
     0
102
RTVSPropertyOp45
 70
     0
102
RTVSPropertyOp46
 70
     0
102
RTVSPropertyOp47
 70
     0
102
RTVSPropertyOp48
 70
     0
102
RTVSPropertyOp49
 70
     0
102
RTVSPropertyOp50
 70
     0
102
RTVSPropertyOp51
 70
     0
102
RTVSPropertyOp52
 70
     0
102
RTVSPropertyOp53
 70
     0
102
RTVSPropertyOp54
 70
     0
102
RTVSPropertyOp55
 70
     0
102
RTVSPropertyOp56
 70
     0
102
RTVSPropertyOp57
 70
     0
102
RTVSPropertyOp58
 70
     0
102
RTVSPropertyOp59
 70
     0
102
RTVSPropertyOp60
 70
     0
102
RTVSPropertyOp61
 70
     0
102
RTVSPropertyOp62
 70
     0
  0
XRECORD
  5
165E8
102
{ACAD_REACTORS
330
165E7
102
}
330
165E7
100
AcDbXrecord
280
     1
102
RTVSPost2010Prop28
280
     0
102
RTVSPost2010PropOp28
 70
     1
102
RTVSPost2010Prop29
280
     1
102
RTVSPost2010PropOp29
 70
     1
102
RTVSPost2010Prop30
280
     1
102
RTVSPost2010PropOp30
 70
     1
102
RTVSPost2010Prop31
280
     0
102
RTVSPost2010PropOp31
 70
     1
102
RTVSPost2010Prop32
280
     0
102
RTVSPost2010PropOp32
 70
     1
102
RTVSPost2010Prop33
280
     0
102
RTVSPost2010PropOp33
 70
     1
102
RTVSPost2010Prop34
280
     0
102
RTVSPost2010PropOp34
 70
     1
102
RTVSPost2010Prop35
280
     0
102
RTVSPost2010PropOp35
 70
     1
102
RTVSPost2010Prop36
280
     0
102
RTVSPost2010PropOp36
 70
     1
102
RTVSPost2010Prop37
 90
       50
102
RTVSPost2010PropOp37
 70
     1
102
RTVSPost2010Prop38
140
0.0
102
RTVSPost2010PropOp38
 70
     1
102
RTVSPost2010Prop39
140
1.0
102
RTVSPost2010PropOp39
 70
     1
102
RTVSPost2010Prop40
 90
        0
102
RTVSPost2010PropOp40
 70
     1
102
RTVSPost2010Prop41ColorIndex
 90
       18
102
RTVSPost2010Prop41ColorRGB
 90
        0
102
RTVSPost2010PropOp41
 70
     1
102
RTVSPost2010Prop42
 90
       50
102
RTVSPost2010PropOp42
 70
     1
102
RTVSPost2010Prop43
 90
        3
102
RTVSPost2010PropOp43
 70
     1
102
RTVSPost2010Prop44ColorIndex
 90
        5
102
RTVSPost2010Prop44ColorRGB
 90
      255
102
RTVSPost2010PropOp44
 70
     1
102
RTVSPost2010Prop45
280
     0
102
RTVSPost2010PropOp45
 70
     1
102
RTVSPost2010Prop46
 90
       50
102
RTVSPost2010PropOp46
 70
     1
102
RTVSPost2010Prop47
 90
       50
102
RTVSPost2010PropOp47
 70
     1
102
RTVSPost2010Prop48
 90
       50
102
RTVSPost2010PropOp48
 70
     1
102
RTVSPost2010Prop49
280
     0
102
RTVSPost2010PropOp49
 70
     1
102
RTVSPost2010Prop50
 90
       50
102
RTVSPost2010PropOp50
 70
     1
102
RTVSPost2010Prop51ColorIndex
 90
      256
102
RTVSPost2010Prop51ColorRGB
 90
-16777216
102
RTVSPost2010PropOp51
 70
     0
102
RTVSPost2010Prop52
140
1.0
102
RTVSPost2010PropOp52
 70
     0
102
RTVSPost2010Prop53
 90
        2
102
RTVSPost2010PropOp53
 70
     1
102
RTVSPost2010Prop54
  1
strokes_ogs.tif
102
RTVSPost2010PropOp54
 70
     1
102
RTVSPost2010Prop55
280
     0
102
RTVSPost2010PropOp55
 70
     1
102
RTVSPost2010Prop56
140
1.0
102
RTVSPost2010PropOp56
 70
     1
102
RTVSPost2010Prop57
140
1.0
102
RTVSPost2010PropOp57
 70
     1
102
RTVSPropertyOp0
 70
     1
102
RTVSPropertyOp1
 70
     1
102
RTVSPropertyOp2
 70
     1
102
RTVSPropertyOp3
 70
     1
102
RTVSPropertyOp4
 70
     1
102
RTVSPropertyOp5
 70
     1
102
RTVSPropertyOp6
 70
     1
102
RTVSPropertyOp7
 70
     1
102
RTVSPropertyOp8
 70
     1
102
RTVSPropertyOp9
 70
     1
102
RTVSPropertyOp10
 70
     1
102
RTVSPropertyOp11
 70
     1
102
RTVSPropertyOp12
 70
     1
102
RTVSPropertyOp13
 70
     1
102
RTVSPropertyOp14
 70
     1
102
RTVSPropertyOp15
 70
     1
102
RTVSPropertyOp16
 70
     1
102
RTVSPropertyOp17
 70
     1
102
RTVSPropertyOp18
 70
     1
102
RTVSPropertyOp19
 70
     1
102
RTVSPropertyOp20
 70
     1
102
RTVSPropertyOp21
 70
     1
102
RTVSPropertyOp22
 70
     1
102
RTVSPropertyOp23
 70
     1
102
RTVSPropertyOp24
 70
     1
102
RTVSPropertyOp25
 70
     1
102
RTVSPropertyOp26
 70
     1
102
RTVSPropertyOp27
 70
     1
102
RTVSPropertyOp28
 70
     1
102
RTVSPropertyOp29
 70
     1
102
RTVSPropertyOp30
 70
     1
102
RTVSPropertyOp31
 70
     1
102
RTVSPropertyOp32
 70
     1
102
RTVSPropertyOp33
 70
     1
102
RTVSPropertyOp34
 70
     1
102
RTVSPropertyOp35
 70
     1
102
RTVSPropertyOp36
 70
     1
102
RTVSPropertyOp37
 70
     1
102
RTVSPropertyOp38
 70
     1
102
RTVSPropertyOp39
 70
     1
102
RTVSPropertyOp40
 70
     1
102
RTVSPropertyOp41
 70
     1
102
RTVSPropertyOp42
 70
     1
102
RTVSPropertyOp43
 70
     1
102
RTVSPropertyOp44
 70
     1
102
RTVSPropertyOp45
 70
     1
102
RTVSPropertyOp46
 70
     1
102
RTVSPropertyOp47
 70
     1
102
RTVSPropertyOp48
 70
     1
102
RTVSPropertyOp49
 70
     1
102
RTVSPropertyOp50
 70
     1
102
RTVSPropertyOp51
 70
     0
102
RTVSPropertyOp52
 70
     0
102
RTVSPropertyOp53
 70
     1
102
RTVSPropertyOp54
 70
     1
102
RTVSPropertyOp55
 70
     1
102
RTVSPropertyOp56
 70
     1
102
RTVSPropertyOp57
 70
     1
102
RTVSPropertyOp58
 70
     1
102
RTVSPropertyOp59
 70
     1
102
RTVSPropertyOp60
 70
     1
102
RTVSPropertyOp61
 70
     1
102
RTVSPropertyOp62
 70
     1
  0
XRECORD
  5
165FE
102
{ACAD_REACTORS
330
165FD
102
}
330
165FD
100
AcDbXrecord
280
     1
102
RTVSPost2010Prop28
280
     0
102
RTVSPost2010PropOp28
 70
     0
102
RTVSPost2010Prop29
280
     1
102
RTVSPost2010PropOp29
 70
     0
102
RTVSPost2010Prop30
280
     1
102
RTVSPost2010PropOp30
 70
     0
102
RTVSPost2010Prop31
280
     0
102
RTVSPost2010PropOp31
 70
     0
102
RTVSPost2010Prop32
280
     0
102
RTVSPost2010PropOp32
 70
     0
102
RTVSPost2010Prop33
280
     0
102
RTVSPost2010PropOp33
 70
     0
102
RTVSPost2010Prop34
280
     0
102
RTVSPost2010PropOp34
 70
     0
102
RTVSPost2010Prop35
280
     0
102
RTVSPost2010PropOp35
 70
     0
102
RTVSPost2010Prop36
280
     0
102
RTVSPost2010PropOp36
 70
     0
102
RTVSPost2010Prop37
 90
       50
102
RTVSPost2010PropOp37
 70
     0
102
RTVSPost2010Prop38
140
0.0
102
RTVSPost2010PropOp38
 70
     0
102
RTVSPost2010Prop39
140
1.0
102
RTVSPost2010PropOp39
 70
     0
102
RTVSPost2010Prop40
 90
        0
102
RTVSPost2010PropOp40
 70
     0
102
RTVSPost2010Prop41ColorIndex
 90
       18
102
RTVSPost2010Prop41ColorRGB
 90
        0
102
RTVSPost2010PropOp41
 70
     0
102
RTVSPost2010Prop42
 90
       50
102
RTVSPost2010PropOp42
 70
     0
102
RTVSPost2010Prop43
 90
        3
102
RTVSPost2010PropOp43
 70
     0
102
RTVSPost2010Prop44ColorIndex
 90
        5
102
RTVSPost2010Prop44ColorRGB
 90
      255
102
RTVSPost2010PropOp44
 70
     0
102
RTVSPost2010Prop45
280
     0
102
RTVSPost2010PropOp45
 70
     0
102
RTVSPost2010Prop46
 90
       50
102
RTVSPost2010PropOp46
 70
     0
102
RTVSPost2010Prop47
 90
       50
102
RTVSPost2010PropOp47
 70
     0
102
RTVSPost2010Prop48
 90
       50
102
RTVSPost2010PropOp48
 70
     0
102
RTVSPost2010Prop49
280
     0
102
RTVSPost2010PropOp49
 70
     0
102
RTVSPost2010Prop50
 90
       50
102
RTVSPost2010PropOp50
 70
     0
102
RTVSPost2010Prop51ColorIndex
 90
      256
102
RTVSPost2010Prop51ColorRGB
 90
-16777216
102
RTVSPost2010PropOp51
 70
     0
102
RTVSPost2010Prop52
140
1.0
102
RTVSPost2010PropOp52
 70
     0
102
RTVSPost2010Prop53
 90
        2
102
RTVSPost2010PropOp53
 70
     0
102
RTVSPost2010Prop54
  1
strokes_ogs.tif
102
RTVSPost2010PropOp54
 70
     0
102
RTVSPost2010Prop55
280
     0
102
RTVSPost2010PropOp55
 70
     0
102
RTVSPost2010Prop56
140
1.0
102
RTVSPost2010PropOp56
 70
     0
102
RTVSPost2010Prop57
140
1.0
102
RTVSPost2010PropOp57
 70
     0
102
RTVSPropertyOp0
 70
     0
102
RTVSPropertyOp1
 70
     0
102
RTVSPropertyOp2
 70
     0
102
RTVSPropertyOp3
 70
     0
102
RTVSPropertyOp4
 70
     0
102
RTVSPropertyOp5
 70
     0
102
RTVSPropertyOp6
 70
     0
102
RTVSPropertyOp7
 70
     0
102
RTVSPropertyOp8
 70
     0
102
RTVSPropertyOp9
 70
     0
102
RTVSPropertyOp10
 70
     0
102
RTVSPropertyOp11
 70
     0
102
RTVSPropertyOp12
 70
     0
102
RTVSPropertyOp13
 70
     0
102
RTVSPropertyOp14
 70
     2
102
RTVSPropertyOp15
 70
     0
102
RTVSPropertyOp16
 70
     0
102
RTVSPropertyOp17
 70
     0
102
RTVSPropertyOp18
 70
     0
102
RTVSPropertyOp19
 70
     0
102
RTVSPropertyOp20
 70
     0
102
RTVSPropertyOp21
 70
     0
102
RTVSPropertyOp22
 70
     0
102
RTVSPropertyOp23
 70
     0
102
RTVSPropertyOp24
 70
     0
102
RTVSPropertyOp25
 70
     0
102
RTVSPropertyOp26
 70
     0
102
RTVSPropertyOp27
 70
     0
102
RTVSPropertyOp28
 70
     0
102
RTVSPropertyOp29
 70
     0
102
RTVSPropertyOp30
 70
     0
102
RTVSPropertyOp31
 70
     0
102
RTVSPropertyOp32
 70
     0
102
RTVSPropertyOp33
 70
     0
102
RTVSPropertyOp34
 70
     0
102
RTVSPropertyOp35
 70
     0
102
RTVSPropertyOp36
 70
     0
102
RTVSPropertyOp37
 70
     0
102
RTVSPropertyOp38
 70
     0
102
RTVSPropertyOp39
 70
     0
102
RTVSPropertyOp40
 70
     0
102
RTVSPropertyOp41
 70
     0
102
RTVSPropertyOp42
 70
     0
102
RTVSPropertyOp43
 70
     0
102
RTVSPropertyOp44
 70
     0
102
RTVSPropertyOp45
 70
     0
102
RTVSPropertyOp46
 70
     0
102
RTVSPropertyOp47
 70
     0
102
RTVSPropertyOp48
 70
     0
102
RTVSPropertyOp49
 70
     0
102
RTVSPropertyOp50
 70
     0
102
RTVSPropertyOp51
 70
     0
102
RTVSPropertyOp52
 70
     0
102
RTVSPropertyOp53
 70
     0
102
RTVSPropertyOp54
 70
     0
102
RTVSPropertyOp55
 70
     0
102
RTVSPropertyOp56
 70
     0
102
RTVSPropertyOp57
 70
     0
102
RTVSPropertyOp58
 70
     0
102
RTVSPropertyOp59
 70
     0
102
RTVSPropertyOp60
 70
     0
102
RTVSPropertyOp61
 70
     0
102
RTVSPropertyOp62
 70
     0
  0
XRECORD
  5
165E0
102
{ACAD_REACTORS
330
165DF
102
}
330
165DF
100
AcDbXrecord
280
     1
102
RTVSPost2010Prop28
280
     0
102
RTVSPost2010PropOp28
 70
     1
102
RTVSPost2010Prop29
280
     1
102
RTVSPost2010PropOp29
 70
     1
102
RTVSPost2010Prop30
280
     1
102
RTVSPost2010PropOp30
 70
     1
102
RTVSPost2010Prop31
280
     0
102
RTVSPost2010PropOp31
 70
     1
102
RTVSPost2010Prop32
280
     0
102
RTVSPost2010PropOp32
 70
     1
102
RTVSPost2010Prop33
280
     0
102
RTVSPost2010PropOp33
 70
     1
102
RTVSPost2010Prop34
280
     0
102
RTVSPost2010PropOp34
 70
     1
102
RTVSPost2010Prop35
280
     0
102
RTVSPost2010PropOp35
 70
     1
102
RTVSPost2010Prop36
280
     0
102
RTVSPost2010PropOp36
 70
     1
102
RTVSPost2010Prop37
 90
       50
102
RTVSPost2010PropOp37
 70
     1
102
RTVSPost2010Prop38
140
0.0
102
RTVSPost2010PropOp38
 70
     1
102
RTVSPost2010Prop39
140
1.0
102
RTVSPost2010PropOp39
 70
     1
102
RTVSPost2010Prop40
 90
        0
102
RTVSPost2010PropOp40
 70
     1
102
RTVSPost2010Prop41ColorIndex
 90
       18
102
RTVSPost2010Prop41ColorRGB
 90
        0
102
RTVSPost2010PropOp41
 70
     1
102
RTVSPost2010Prop42
 90
       50
102
RTVSPost2010PropOp42
 70
     1
102
RTVSPost2010Prop43
 90
        3
102
RTVSPost2010PropOp43
 70
     1
102
RTVSPost2010Prop44ColorIndex
 90
        5
102
RTVSPost2010Prop44ColorRGB
 90
      255
102
RTVSPost2010PropOp44
 70
     1
102
RTVSPost2010Prop45
280
     0
102
RTVSPost2010PropOp45
 70
     1
102
RTVSPost2010Prop46
 90
       50
102
RTVSPost2010PropOp46
 70
     1
102
RTVSPost2010Prop47
 90
       50
102
RTVSPost2010PropOp47
 70
     1
102
RTVSPost2010Prop48
 90
       50
102
RTVSPost2010PropOp48
 70
     1
102
RTVSPost2010Prop49
280
     0
102
RTVSPost2010PropOp49
 70
     1
102
RTVSPost2010Prop50
 90
       50
102
RTVSPost2010PropOp50
 70
     1
102
RTVSPost2010Prop51ColorIndex
 90
      256
102
RTVSPost2010Prop51ColorRGB
 90
-16777216
102
RTVSPost2010PropOp51
 70
     0
102
RTVSPost2010Prop52
140
1.0
102
RTVSPost2010PropOp52
 70
     0
102
RTVSPost2010Prop53
 90
        2
102
RTVSPost2010PropOp53
 70
     1
102
RTVSPost2010Prop54
  1
strokes_ogs.tif
102
RTVSPost2010PropOp54
 70
     1
102
RTVSPost2010Prop55
280
     0
102
RTVSPost2010PropOp55
 70
     1
102
RTVSPost2010Prop56
140
1.0
102
RTVSPost2010PropOp56
 70
     1
102
RTVSPost2010Prop57
140
1.0
102
RTVSPost2010PropOp57
 70
     1
102
RTVSPropertyOp0
 70
     1
102
RTVSPropertyOp1
 70
     1
102
RTVSPropertyOp2
 70
     1
102
RTVSPropertyOp3
 70
     1
102
RTVSPropertyOp4
 70
     1
102
RTVSPropertyOp5
 70
     1
102
RTVSPropertyOp6
 70
     1
102
RTVSPropertyOp7
 70
     1
102
RTVSPropertyOp8
 70
     1
102
RTVSPropertyOp9
 70
     1
102
RTVSPropertyOp10
 70
     1
102
RTVSPropertyOp11
 70
     1
102
RTVSPropertyOp12
 70
     1
102
RTVSPropertyOp13
 70
     1
102
RTVSPropertyOp14
 70
     1
102
RTVSPropertyOp15
 70
     1
102
RTVSPropertyOp16
 70
     1
102
RTVSPropertyOp17
 70
     1
102
RTVSPropertyOp18
 70
     1
102
RTVSPropertyOp19
 70
     1
102
RTVSPropertyOp20
 70
     1
102
RTVSPropertyOp21
 70
     1
102
RTVSPropertyOp22
 70
     1
102
RTVSPropertyOp23
 70
     1
102
RTVSPropertyOp24
 70
     1
102
RTVSPropertyOp25
 70
     1
102
RTVSPropertyOp26
 70
     1
102
RTVSPropertyOp27
 70
     1
102
RTVSPropertyOp28
 70
     1
102
RTVSPropertyOp29
 70
     1
102
RTVSPropertyOp30
 70
     1
102
RTVSPropertyOp31
 70
     1
102
RTVSPropertyOp32
 70
     1
102
RTVSPropertyOp33
 70
     1
102
RTVSPropertyOp34
 70
     1
102
RTVSPropertyOp35
 70
     1
102
RTVSPropertyOp36
 70
     1
102
RTVSPropertyOp37
 70
     1
102
RTVSPropertyOp38
 70
     1
102
RTVSPropertyOp39
 70
     1
102
RTVSPropertyOp40
 70
     1
102
RTVSPropertyOp41
 70
     1
102
RTVSPropertyOp42
 70
     1
102
RTVSPropertyOp43
 70
     1
102
RTVSPropertyOp44
 70
     1
102
RTVSPropertyOp45
 70
     1
102
RTVSPropertyOp46
 70
     1
102
RTVSPropertyOp47
 70
     1
102
RTVSPropertyOp48
 70
     1
102
RTVSPropertyOp49
 70
     1
102
RTVSPropertyOp50
 70
     1
102
RTVSPropertyOp51
 70
     0
102
RTVSPropertyOp52
 70
     0
102
RTVSPropertyOp53
 70
     1
102
RTVSPropertyOp54
 70
     1
102
RTVSPropertyOp55
 70
     1
102
RTVSPropertyOp56
 70
     1
102
RTVSPropertyOp57
 70
     1
102
RTVSPropertyOp58
 70
     1
102
RTVSPropertyOp59
 70
     1
102
RTVSPropertyOp60
 70
     1
102
RTVSPropertyOp61
 70
     1
102
RTVSPropertyOp62
 70
     1
  0
XRECORD
  5
165FA
102
{ACAD_REACTORS
330
165F9
102
}
330
165F9
100
AcDbXrecord
280
     1
102
RTVSPost2010Prop28
280
     0
102
RTVSPost2010PropOp28
 70
     1
102
RTVSPost2010Prop29
280
     1
102
RTVSPost2010PropOp29
 70
     1
102
RTVSPost2010Prop30
280
     1
102
RTVSPost2010PropOp30
 70
     1
102
RTVSPost2010Prop31
280
     0
102
RTVSPost2010PropOp31
 70
     1
102
RTVSPost2010Prop32
280
     0
102
RTVSPost2010PropOp32
 70
     1
102
RTVSPost2010Prop33
280
     0
102
RTVSPost2010PropOp33
 70
     1
102
RTVSPost2010Prop34
280
     0
102
RTVSPost2010PropOp34
 70
     1
102
RTVSPost2010Prop35
280
     0
102
RTVSPost2010PropOp35
 70
     1
102
RTVSPost2010Prop36
280
     0
102
RTVSPost2010PropOp36
 70
     1
102
RTVSPost2010Prop37
 90
       50
102
RTVSPost2010PropOp37
 70
     1
102
RTVSPost2010Prop38
140
0.0
102
RTVSPost2010PropOp38
 70
     1
102
RTVSPost2010Prop39
140
1.0
102
RTVSPost2010PropOp39
 70
     1
102
RTVSPost2010Prop40
 90
        0
102
RTVSPost2010PropOp40
 70
     1
102
RTVSPost2010Prop41ColorIndex
 90
       18
102
RTVSPost2010Prop41ColorRGB
 90
        0
102
RTVSPost2010PropOp41
 70
     1
102
RTVSPost2010Prop42
 90
       50
102
RTVSPost2010PropOp42
 70
     1
102
RTVSPost2010Prop43
 90
        3
102
RTVSPost2010PropOp43
 70
     1
102
RTVSPost2010Prop44ColorIndex
 90
        5
102
RTVSPost2010Prop44ColorRGB
 90
      255
102
RTVSPost2010PropOp44
 70
     1
102
RTVSPost2010Prop45
280
     0
102
RTVSPost2010PropOp45
 70
     1
102
RTVSPost2010Prop46
 90
       50
102
RTVSPost2010PropOp46
 70
     1
102
RTVSPost2010Prop47
 90
       50
102
RTVSPost2010PropOp47
 70
     1
102
RTVSPost2010Prop48
 90
       50
102
RTVSPost2010PropOp48
 70
     1
102
RTVSPost2010Prop49
280
     0
102
RTVSPost2010PropOp49
 70
     1
102
RTVSPost2010Prop50
 90
       50
102
RTVSPost2010PropOp50
 70
     1
102
RTVSPost2010Prop51ColorIndex
 90
      256
102
RTVSPost2010Prop51ColorRGB
 90
-16777216
102
RTVSPost2010PropOp51
 70
     0
102
RTVSPost2010Prop52
140
1.0
102
RTVSPost2010PropOp52
 70
     0
102
RTVSPost2010Prop53
 90
        2
102
RTVSPost2010PropOp53
 70
     1
102
RTVSPost2010Prop54
  1
strokes_ogs.tif
102
RTVSPost2010PropOp54
 70
     1
102
RTVSPost2010Prop55
280
     0
102
RTVSPost2010PropOp55
 70
     1
102
RTVSPost2010Prop56
140
1.0
102
RTVSPost2010PropOp56
 70
     1
102
RTVSPost2010Prop57
140
1.0
102
RTVSPost2010PropOp57
 70
     1
102
RTVSPropertyOp0
 70
     1
102
RTVSPropertyOp1
 70
     1
102
RTVSPropertyOp2
 70
     1
102
RTVSPropertyOp3
 70
     1
102
RTVSPropertyOp4
 70
     1
102
RTVSPropertyOp5
 70
     1
102
RTVSPropertyOp6
 70
     1
102
RTVSPropertyOp7
 70
     1
102
RTVSPropertyOp8
 70
     1
102
RTVSPropertyOp9
 70
     1
102
RTVSPropertyOp10
 70
     1
102
RTVSPropertyOp11
 70
     1
102
RTVSPropertyOp12
 70
     1
102
RTVSPropertyOp13
 70
     1
102
RTVSPropertyOp14
 70
     1
102
RTVSPropertyOp15
 70
     1
102
RTVSPropertyOp16
 70
     1
102
RTVSPropertyOp17
 70
     1
102
RTVSPropertyOp18
 70
     1
102
RTVSPropertyOp19
 70
     1
102
RTVSPropertyOp20
 70
     1
102
RTVSPropertyOp21
 70
     1
102
RTVSPropertyOp22
 70
     1
102
RTVSPropertyOp23
 70
     1
102
RTVSPropertyOp24
 70
     1
102
RTVSPropertyOp25
 70
     1
102
RTVSPropertyOp26
 70
     1
102
RTVSPropertyOp27
 70
     1
102
RTVSPropertyOp28
 70
     1
102
RTVSPropertyOp29
 70
     1
102
RTVSPropertyOp30
 70
     1
102
RTVSPropertyOp31
 70
     1
102
RTVSPropertyOp32
 70
     1
102
RTVSPropertyOp33
 70
     1
102
RTVSPropertyOp34
 70
     1
102
RTVSPropertyOp35
 70
     1
102
RTVSPropertyOp36
 70
     1
102
RTVSPropertyOp37
 70
     1
102
RTVSPropertyOp38
 70
     1
102
RTVSPropertyOp39
 70
     1
102
RTVSPropertyOp40
 70
     1
102
RTVSPropertyOp41
 70
     1
102
RTVSPropertyOp42
 70
     1
102
RTVSPropertyOp43
 70
     1
102
RTVSPropertyOp44
 70
     1
102
RTVSPropertyOp45
 70
     1
102
RTVSPropertyOp46
 70
     1
102
RTVSPropertyOp47
 70
     1
102
RTVSPropertyOp48
 70
     1
102
RTVSPropertyOp49
 70
     1
102
RTVSPropertyOp50
 70
     1
102
RTVSPropertyOp51
 70
     0
102
RTVSPropertyOp52
 70
     0
102
RTVSPropertyOp53
 70
     1
102
RTVSPropertyOp54
 70
     1
102
RTVSPropertyOp55
 70
     1
102
RTVSPropertyOp56
 70
     1
102
RTVSPropertyOp57
 70
     1
102
RTVSPropertyOp58
 70
     1
102
RTVSPropertyOp59
 70
     1
102
RTVSPropertyOp60
 70
     1
102
RTVSPropertyOp61
 70
     1
102
RTVSPropertyOp62
 70
     1
  0
XRECORD
  5
165F8
102
{ACAD_REACTORS
330
165F7
102
}
330
165F7
100
AcDbXrecord
280
     1
102
RTVSPost2010Prop28
280
     0
102
RTVSPost2010PropOp28
 70
     1
102
RTVSPost2010Prop29
280
     1
102
RTVSPost2010PropOp29
 70
     1
102
RTVSPost2010Prop30
280
     1
102
RTVSPost2010PropOp30
 70
     1
102
RTVSPost2010Prop31
280
     0
102
RTVSPost2010PropOp31
 70
     1
102
RTVSPost2010Prop32
280
     0
102
RTVSPost2010PropOp32
 70
     1
102
RTVSPost2010Prop33
280
     0
102
RTVSPost2010PropOp33
 70
     1
102
RTVSPost2010Prop34
280
     0
102
RTVSPost2010PropOp34
 70
     1
102
RTVSPost2010Prop35
280
     0
102
RTVSPost2010PropOp35
 70
     1
102
RTVSPost2010Prop36
280
     0
102
RTVSPost2010PropOp36
 70
     1
102
RTVSPost2010Prop37
 90
       50
102
RTVSPost2010PropOp37
 70
     1
102
RTVSPost2010Prop38
140
0.0
102
RTVSPost2010PropOp38
 70
     1
102
RTVSPost2010Prop39
140
1.0
102
RTVSPost2010PropOp39
 70
     1
102
RTVSPost2010Prop40
 90
        0
102
RTVSPost2010PropOp40
 70
     1
102
RTVSPost2010Prop41ColorIndex
 90
       18
102
RTVSPost2010Prop41ColorRGB
 90
        0
102
RTVSPost2010PropOp41
 70
     1
102
RTVSPost2010Prop42
 90
       50
102
RTVSPost2010PropOp42
 70
     1
102
RTVSPost2010Prop43
 90
        3
102
RTVSPost2010PropOp43
 70
     1
102
RTVSPost2010Prop44ColorIndex
 90
        5
102
RTVSPost2010Prop44ColorRGB
 90
      255
102
RTVSPost2010PropOp44
 70
     1
102
RTVSPost2010Prop45
280
     0
102
RTVSPost2010PropOp45
 70
     1
102
RTVSPost2010Prop46
 90
       50
102
RTVSPost2010PropOp46
 70
     1
102
RTVSPost2010Prop47
 90
       50
102
RTVSPost2010PropOp47
 70
     1
102
RTVSPost2010Prop48
 90
       50
102
RTVSPost2010PropOp48
 70
     1
102
RTVSPost2010Prop49
280
     0
102
RTVSPost2010PropOp49
 70
     1
102
RTVSPost2010Prop50
 90
       50
102
RTVSPost2010PropOp50
 70
     1
102
RTVSPost2010Prop51ColorIndex
 90
      256
102
RTVSPost2010Prop51ColorRGB
 90
-16777216
102
RTVSPost2010PropOp51
 70
     0
102
RTVSPost2010Prop52
140
1.0
102
RTVSPost2010PropOp52
 70
     0
102
RTVSPost2010Prop53
 90
        2
102
RTVSPost2010PropOp53
 70
     1
102
RTVSPost2010Prop54
  1
strokes_ogs.tif
102
RTVSPost2010PropOp54
 70
     1
102
RTVSPost2010Prop55
280
     0
102
RTVSPost2010PropOp55
 70
     1
102
RTVSPost2010Prop56
140
1.0
102
RTVSPost2010PropOp56
 70
     1
102
RTVSPost2010Prop57
140
1.0
102
RTVSPost2010PropOp57
 70
     1
102
RTVSPropertyOp0
 70
     1
102
RTVSPropertyOp1
 70
     1
102
RTVSPropertyOp2
 70
     1
102
RTVSPropertyOp3
 70
     1
102
RTVSPropertyOp4
 70
     1
102
RTVSPropertyOp5
 70
     1
102
RTVSPropertyOp6
 70
     1
102
RTVSPropertyOp7
 70
     1
102
RTVSPropertyOp8
 70
     1
102
RTVSPropertyOp9
 70
     1
102
RTVSPropertyOp10
 70
     1
102
RTVSPropertyOp11
 70
     1
102
RTVSPropertyOp12
 70
     1
102
RTVSPropertyOp13
 70
     1
102
RTVSPropertyOp14
 70
     1
102
RTVSPropertyOp15
 70
     1
102
RTVSPropertyOp16
 70
     1
102
RTVSPropertyOp17
 70
     1
102
RTVSPropertyOp18
 70
     1
102
RTVSPropertyOp19
 70
     1
102
RTVSPropertyOp20
 70
     1
102
RTVSPropertyOp21
 70
     1
102
RTVSPropertyOp22
 70
     1
102
RTVSPropertyOp23
 70
     1
102
RTVSPropertyOp24
 70
     1
102
RTVSPropertyOp25
 70
     1
102
RTVSPropertyOp26
 70
     1
102
RTVSPropertyOp27
 70
     1
102
RTVSPropertyOp28
 70
     1
102
RTVSPropertyOp29
 70
     1
102
RTVSPropertyOp30
 70
     1
102
RTVSPropertyOp31
 70
     1
102
RTVSPropertyOp32
 70
     1
102
RTVSPropertyOp33
 70
     1
102
RTVSPropertyOp34
 70
     1
102
RTVSPropertyOp35
 70
     1
102
RTVSPropertyOp36
 70
     1
102
RTVSPropertyOp37
 70
     1
102
RTVSPropertyOp38
 70
     1
102
RTVSPropertyOp39
 70
     1
102
RTVSPropertyOp40
 70
     1
102
RTVSPropertyOp41
 70
     1
102
RTVSPropertyOp42
 70
     1
102
RTVSPropertyOp43
 70
     1
102
RTVSPropertyOp44
 70
     1
102
RTVSPropertyOp45
 70
     1
102
RTVSPropertyOp46
 70
     1
102
RTVSPropertyOp47
 70
     1
102
RTVSPropertyOp48
 70
     1
102
RTVSPropertyOp49
 70
     1
102
RTVSPropertyOp50
 70
     1
102
RTVSPropertyOp51
 70
     0
102
RTVSPropertyOp52
 70
     0
102
RTVSPropertyOp53
 70
     1
102
RTVSPropertyOp54
 70
     1
102
RTVSPropertyOp55
 70
     1
102
RTVSPropertyOp56
 70
     1
102
RTVSPropertyOp57
 70
     1
102
RTVSPropertyOp58
 70
     1
102
RTVSPropertyOp59
 70
     1
102
RTVSPropertyOp60
 70
     1
102
RTVSPropertyOp61
 70
     1
102
RTVSPropertyOp62
 70
     1
  0
XRECORD
  5
165F2
102
{ACAD_REACTORS
330
165F1
102
}
330
165F1
100
AcDbXrecord
280
     1
102
RTVSPost2010Prop28
280
     0
102
RTVSPost2010PropOp28
 70
     1
102
RTVSPost2010Prop29
280
     1
102
RTVSPost2010PropOp29
 70
     1
102
RTVSPost2010Prop30
280
     1
102
RTVSPost2010PropOp30
 70
     1
102
RTVSPost2010Prop31
280
     0
102
RTVSPost2010PropOp31
 70
     1
102
RTVSPost2010Prop32
280
     0
102
RTVSPost2010PropOp32
 70
     1
102
RTVSPost2010Prop33
280
     0
102
RTVSPost2010PropOp33
 70
     1
102
RTVSPost2010Prop34
280
     0
102
RTVSPost2010PropOp34
 70
     1
102
RTVSPost2010Prop35
280
     0
102
RTVSPost2010PropOp35
 70
     1
102
RTVSPost2010Prop36
280
     0
102
RTVSPost2010PropOp36
 70
     1
102
RTVSPost2010Prop37
 90
       50
102
RTVSPost2010PropOp37
 70
     1
102
RTVSPost2010Prop38
140
0.0
102
RTVSPost2010PropOp38
 70
     1
102
RTVSPost2010Prop39
140
1.0
102
RTVSPost2010PropOp39
 70
     1
102
RTVSPost2010Prop40
 90
        0
102
RTVSPost2010PropOp40
 70
     1
102
RTVSPost2010Prop41ColorIndex
 90
       18
102
RTVSPost2010Prop41ColorRGB
 90
        0
102
RTVSPost2010PropOp41
 70
     1
102
RTVSPost2010Prop42
 90
       50
102
RTVSPost2010PropOp42
 70
     1
102
RTVSPost2010Prop43
 90
        3
102
RTVSPost2010PropOp43
 70
     1
102
RTVSPost2010Prop44ColorIndex
 90
        5
102
RTVSPost2010Prop44ColorRGB
 90
      255
102
RTVSPost2010PropOp44
 70
     1
102
RTVSPost2010Prop45
280
     0
102
RTVSPost2010PropOp45
 70
     1
102
RTVSPost2010Prop46
 90
       50
102
RTVSPost2010PropOp46
 70
     1
102
RTVSPost2010Prop47
 90
       50
102
RTVSPost2010PropOp47
 70
     1
102
RTVSPost2010Prop48
 90
       50
102
RTVSPost2010PropOp48
 70
     1
102
RTVSPost2010Prop49
280
     0
102
RTVSPost2010PropOp49
 70
     1
102
RTVSPost2010Prop50
 90
       50
102
RTVSPost2010PropOp50
 70
     1
102
RTVSPost2010Prop51ColorIndex
 90
      256
102
RTVSPost2010Prop51ColorRGB
 90
-16777216
102
RTVSPost2010PropOp51
 70
     0
102
RTVSPost2010Prop52
140
1.0
102
RTVSPost2010PropOp52
 70
     0
102
RTVSPost2010Prop53
 90
        2
102
RTVSPost2010PropOp53
 70
     1
102
RTVSPost2010Prop54
  1
strokes_ogs.tif
102
RTVSPost2010PropOp54
 70
     1
102
RTVSPost2010Prop55
280
     0
102
RTVSPost2010PropOp55
 70
     1
102
RTVSPost2010Prop56
140
1.0
102
RTVSPost2010PropOp56
 70
     1
102
RTVSPost2010Prop57
140
1.0
102
RTVSPost2010PropOp57
 70
     1
102
RTVSPropertyOp0
 70
     1
102
RTVSPropertyOp1
 70
     1
102
RTVSPropertyOp2
 70
     1
102
RTVSPropertyOp3
 70
     1
102
RTVSPropertyOp4
 70
     1
102
RTVSPropertyOp5
 70
     1
102
RTVSPropertyOp6
 70
     1
102
RTVSPropertyOp7
 70
     1
102
RTVSPropertyOp8
 70
     1
102
RTVSPropertyOp9
 70
     1
102
RTVSPropertyOp10
 70
     1
102
RTVSPropertyOp11
 70
     1
102
RTVSPropertyOp12
 70
     1
102
RTVSPropertyOp13
 70
     1
102
RTVSPropertyOp14
 70
     1
102
RTVSPropertyOp15
 70
     1
102
RTVSPropertyOp16
 70
     1
102
RTVSPropertyOp17
 70
     1
102
RTVSPropertyOp18
 70
     1
102
RTVSPropertyOp19
 70
     1
102
RTVSPropertyOp20
 70
     1
102
RTVSPropertyOp21
 70
     1
102
RTVSPropertyOp22
 70
     1
102
RTVSPropertyOp23
 70
     1
102
RTVSPropertyOp24
 70
     1
102
RTVSPropertyOp25
 70
     1
102
RTVSPropertyOp26
 70
     1
102
RTVSPropertyOp27
 70
     1
102
RTVSPropertyOp28
 70
     1
102
RTVSPropertyOp29
 70
     1
102
RTVSPropertyOp30
 70
     1
102
RTVSPropertyOp31
 70
     1
102
RTVSPropertyOp32
 70
     1
102
RTVSPropertyOp33
 70
     1
102
RTVSPropertyOp34
 70
     1
102
RTVSPropertyOp35
 70
     1
102
RTVSPropertyOp36
 70
     1
102
RTVSPropertyOp37
 70
     1
102
RTVSPropertyOp38
 70
     1
102
RTVSPropertyOp39
 70
     1
102
RTVSPropertyOp40
 70
     1
102
RTVSPropertyOp41
 70
     1
102
RTVSPropertyOp42
 70
     1
102
RTVSPropertyOp43
 70
     1
102
RTVSPropertyOp44
 70
     1
102
RTVSPropertyOp45
 70
     1
102
RTVSPropertyOp46
 70
     1
102
RTVSPropertyOp47
 70
     1
102
RTVSPropertyOp48
 70
     1
102
RTVSPropertyOp49
 70
     1
102
RTVSPropertyOp50
 70
     1
102
RTVSPropertyOp51
 70
     0
102
RTVSPropertyOp52
 70
     0
102
RTVSPropertyOp53
 70
     1
102
RTVSPropertyOp54
 70
     1
102
RTVSPropertyOp55
 70
     1
102
RTVSPropertyOp56
 70
     1
102
RTVSPropertyOp57
 70
     1
102
RTVSPropertyOp58
 70
     1
102
RTVSPropertyOp59
 70
     1
102
RTVSPropertyOp60
 70
     1
102
RTVSPropertyOp61
 70
     1
102
RTVSPropertyOp62
 70
     1
  0
XRECORD
  5
165F4
102
{ACAD_REACTORS
330
165F3
102
}
330
165F3
100
AcDbXrecord
280
     1
102
RTVSPost2010Prop28
280
     0
102
RTVSPost2010PropOp28
 70
     1
102
RTVSPost2010Prop29
280
     1
102
RTVSPost2010PropOp29
 70
     1
102
RTVSPost2010Prop30
280
     1
102
RTVSPost2010PropOp30
 70
     1
102
RTVSPost2010Prop31
280
     0
102
RTVSPost2010PropOp31
 70
     1
102
RTVSPost2010Prop32
280
     0
102
RTVSPost2010PropOp32
 70
     1
102
RTVSPost2010Prop33
280
     0
102
RTVSPost2010PropOp33
 70
     1
102
RTVSPost2010Prop34
280
     0
102
RTVSPost2010PropOp34
 70
     1
102
RTVSPost2010Prop35
280
     0
102
RTVSPost2010PropOp35
 70
     1
102
RTVSPost2010Prop36
280
     0
102
RTVSPost2010PropOp36
 70
     1
102
RTVSPost2010Prop37
 90
       50
102
RTVSPost2010PropOp37
 70
     1
102
RTVSPost2010Prop38
140
0.0
102
RTVSPost2010PropOp38
 70
     1
102
RTVSPost2010Prop39
140
1.0
102
RTVSPost2010PropOp39
 70
     1
102
RTVSPost2010Prop40
 90
        0
102
RTVSPost2010PropOp40
 70
     1
102
RTVSPost2010Prop41ColorIndex
 90
       18
102
RTVSPost2010Prop41ColorRGB
 90
        0
102
RTVSPost2010PropOp41
 70
     1
102
RTVSPost2010Prop42
 90
       50
102
RTVSPost2010PropOp42
 70
     1
102
RTVSPost2010Prop43
 90
        3
102
RTVSPost2010PropOp43
 70
     1
102
RTVSPost2010Prop44ColorIndex
 90
        5
102
RTVSPost2010Prop44ColorRGB
 90
      255
102
RTVSPost2010PropOp44
 70
     1
102
RTVSPost2010Prop45
280
     0
102
RTVSPost2010PropOp45
 70
     1
102
RTVSPost2010Prop46
 90
       50
102
RTVSPost2010PropOp46
 70
     1
102
RTVSPost2010Prop47
 90
       50
102
RTVSPost2010PropOp47
 70
     1
102
RTVSPost2010Prop48
 90
       50
102
RTVSPost2010PropOp48
 70
     1
102
RTVSPost2010Prop49
280
     0
102
RTVSPost2010PropOp49
 70
     1
102
RTVSPost2010Prop50
 90
       50
102
RTVSPost2010PropOp50
 70
     1
102
RTVSPost2010Prop51ColorIndex
 90
      256
102
RTVSPost2010Prop51ColorRGB
 90
-16777216
102
RTVSPost2010PropOp51
 70
     0
102
RTVSPost2010Prop52
140
1.0
102
RTVSPost2010PropOp52
 70
     0
102
RTVSPost2010Prop53
 90
        2
102
RTVSPost2010PropOp53
 70
     1
102
RTVSPost2010Prop54
  1
strokes_ogs.tif
102
RTVSPost2010PropOp54
 70
     1
102
RTVSPost2010Prop55
280
     0
102
RTVSPost2010PropOp55
 70
     1
102
RTVSPost2010Prop56
140
1.0
102
RTVSPost2010PropOp56
 70
     1
102
RTVSPost2010Prop57
140
1.0
102
RTVSPost2010PropOp57
 70
     1
102
RTVSPropertyOp0
 70
     1
102
RTVSPropertyOp1
 70
     1
102
RTVSPropertyOp2
 70
     1
102
RTVSPropertyOp3
 70
     1
102
RTVSPropertyOp4
 70
     1
102
RTVSPropertyOp5
 70
     1
102
RTVSPropertyOp6
 70
     1
102
RTVSPropertyOp7
 70
     1
102
RTVSPropertyOp8
 70
     1
102
RTVSPropertyOp9
 70
     1
102
RTVSPropertyOp10
 70
     1
102
RTVSPropertyOp11
 70
     1
102
RTVSPropertyOp12
 70
     1
102
RTVSPropertyOp13
 70
     1
102
RTVSPropertyOp14
 70
     1
102
RTVSPropertyOp15
 70
     1
102
RTVSPropertyOp16
 70
     1
102
RTVSPropertyOp17
 70
     1
102
RTVSPropertyOp18
 70
     1
102
RTVSPropertyOp19
 70
     1
102
RTVSPropertyOp20
 70
     1
102
RTVSPropertyOp21
 70
     1
102
RTVSPropertyOp22
 70
     1
102
RTVSPropertyOp23
 70
     1
102
RTVSPropertyOp24
 70
     1
102
RTVSPropertyOp25
 70
     1
102
RTVSPropertyOp26
 70
     1
102
RTVSPropertyOp27
 70
     1
102
RTVSPropertyOp28
 70
     1
102
RTVSPropertyOp29
 70
     1
102
RTVSPropertyOp30
 70
     1
102
RTVSPropertyOp31
 70
     1
102
RTVSPropertyOp32
 70
     1
102
RTVSPropertyOp33
 70
     1
102
RTVSPropertyOp34
 70
     1
102
RTVSPropertyOp35
 70
     1
102
RTVSPropertyOp36
 70
     1
102
RTVSPropertyOp37
 70
     1
102
RTVSPropertyOp38
 70
     1
102
RTVSPropertyOp39
 70
     1
102
RTVSPropertyOp40
 70
     1
102
RTVSPropertyOp41
 70
     1
102
RTVSPropertyOp42
 70
     1
102
RTVSPropertyOp43
 70
     1
102
RTVSPropertyOp44
 70
     1
102
RTVSPropertyOp45
 70
     1
102
RTVSPropertyOp46
 70
     1
102
RTVSPropertyOp47
 70
     1
102
RTVSPropertyOp48
 70
     1
102
RTVSPropertyOp49
 70
     1
102
RTVSPropertyOp50
 70
     1
102
RTVSPropertyOp51
 70
     0
102
RTVSPropertyOp52
 70
     0
102
RTVSPropertyOp53
 70
     1
102
RTVSPropertyOp54
 70
     1
102
RTVSPropertyOp55
 70
     1
102
RTVSPropertyOp56
 70
     1
102
RTVSPropertyOp57
 70
     1
102
RTVSPropertyOp58
 70
     1
102
RTVSPropertyOp59
 70
     1
102
RTVSPropertyOp60
 70
     1
102
RTVSPropertyOp61
 70
     1
102
RTVSPropertyOp62
 70
     1
  0
XRECORD
  5
165E6
102
{ACAD_REACTORS
330
165E5
102
}
330
165E5
100
AcDbXrecord
280
     1
102
RTVSPost2010Prop28
280
     0
102
RTVSPost2010PropOp28
 70
     1
102
RTVSPost2010Prop29
280
     1
102
RTVSPost2010PropOp29
 70
     1
102
RTVSPost2010Prop30
280
     1
102
RTVSPost2010PropOp30
 70
     1
102
RTVSPost2010Prop31
280
     0
102
RTVSPost2010PropOp31
 70
     1
102
RTVSPost2010Prop32
280
     0
102
RTVSPost2010PropOp32
 70
     1
102
RTVSPost2010Prop33
280
     0
102
RTVSPost2010PropOp33
 70
     1
102
RTVSPost2010Prop34
280
     0
102
RTVSPost2010PropOp34
 70
     1
102
RTVSPost2010Prop35
280
     0
102
RTVSPost2010PropOp35
 70
     1
102
RTVSPost2010Prop36
280
     0
102
RTVSPost2010PropOp36
 70
     1
102
RTVSPost2010Prop37
 90
       50
102
RTVSPost2010PropOp37
 70
     1
102
RTVSPost2010Prop38
140
0.0
102
RTVSPost2010PropOp38
 70
     1
102
RTVSPost2010Prop39
140
1.0
102
RTVSPost2010PropOp39
 70
     1
102
RTVSPost2010Prop40
 90
        0
102
RTVSPost2010PropOp40
 70
     1
102
RTVSPost2010Prop41ColorIndex
 90
       18
102
RTVSPost2010Prop41ColorRGB
 90
        0
102
RTVSPost2010PropOp41
 70
     1
102
RTVSPost2010Prop42
 90
       50
102
RTVSPost2010PropOp42
 70
     1
102
RTVSPost2010Prop43
 90
        3
102
RTVSPost2010PropOp43
 70
     1
102
RTVSPost2010Prop44ColorIndex
 90
        5
102
RTVSPost2010Prop44ColorRGB
 90
      255
102
RTVSPost2010PropOp44
 70
     1
102
RTVSPost2010Prop45
280
     0
102
RTVSPost2010PropOp45
 70
     1
102
RTVSPost2010Prop46
 90
       50
102
RTVSPost2010PropOp46
 70
     1
102
RTVSPost2010Prop47
 90
       50
102
RTVSPost2010PropOp47
 70
     1
102
RTVSPost2010Prop48
 90
       50
102
RTVSPost2010PropOp48
 70
     1
102
RTVSPost2010Prop49
280
     0
102
RTVSPost2010PropOp49
 70
     1
102
RTVSPost2010Prop50
 90
       50
102
RTVSPost2010PropOp50
 70
     1
102
RTVSPost2010Prop51ColorIndex
 90
      256
102
RTVSPost2010Prop51ColorRGB
 90
-16777216
102
RTVSPost2010PropOp51
 70
     0
102
RTVSPost2010Prop52
140
1.0
102
RTVSPost2010PropOp52
 70
     0
102
RTVSPost2010Prop53
 90
        2
102
RTVSPost2010PropOp53
 70
     1
102
RTVSPost2010Prop54
  1
strokes_ogs.tif
102
RTVSPost2010PropOp54
 70
     1
102
RTVSPost2010Prop55
280
     0
102
RTVSPost2010PropOp55
 70
     1
102
RTVSPost2010Prop56
140
1.0
102
RTVSPost2010PropOp56
 70
     1
102
RTVSPost2010Prop57
140
1.0
102
RTVSPost2010PropOp57
 70
     1
102
RTVSPropertyOp0
 70
     1
102
RTVSPropertyOp1
 70
     1
102
RTVSPropertyOp2
 70
     1
102
RTVSPropertyOp3
 70
     1
102
RTVSPropertyOp4
 70
     1
102
RTVSPropertyOp5
 70
     1
102
RTVSPropertyOp6
 70
     1
102
RTVSPropertyOp7
 70
     1
102
RTVSPropertyOp8
 70
     1
102
RTVSPropertyOp9
 70
     1
102
RTVSPropertyOp10
 70
     1
102
RTVSPropertyOp11
 70
     1
102
RTVSPropertyOp12
 70
     1
102
RTVSPropertyOp13
 70
     1
102
RTVSPropertyOp14
 70
     1
102
RTVSPropertyOp15
 70
     1
102
RTVSPropertyOp16
 70
     1
102
RTVSPropertyOp17
 70
     1
102
RTVSPropertyOp18
 70
     1
102
RTVSPropertyOp19
 70
     1
102
RTVSPropertyOp20
 70
     1
102
RTVSPropertyOp21
 70
     1
102
RTVSPropertyOp22
 70
     1
102
RTVSPropertyOp23
 70
     1
102
RTVSPropertyOp24
 70
     1
102
RTVSPropertyOp25
 70
     1
102
RTVSPropertyOp26
 70
     1
102
RTVSPropertyOp27
 70
     1
102
RTVSPropertyOp28
 70
     1
102
RTVSPropertyOp29
 70
     1
102
RTVSPropertyOp30
 70
     1
102
RTVSPropertyOp31
 70
     1
102
RTVSPropertyOp32
 70
     1
102
RTVSPropertyOp33
 70
     1
102
RTVSPropertyOp34
 70
     1
102
RTVSPropertyOp35
 70
     1
102
RTVSPropertyOp36
 70
     1
102
RTVSPropertyOp37
 70
     1
102
RTVSPropertyOp38
 70
     1
102
RTVSPropertyOp39
 70
     1
102
RTVSPropertyOp40
 70
     1
102
RTVSPropertyOp41
 70
     1
102
RTVSPropertyOp42
 70
     1
102
RTVSPropertyOp43
 70
     1
102
RTVSPropertyOp44
 70
     1
102
RTVSPropertyOp45
 70
     1
102
RTVSPropertyOp46
 70
     1
102
RTVSPropertyOp47
 70
     1
102
RTVSPropertyOp48
 70
     1
102
RTVSPropertyOp49
 70
     1
102
RTVSPropertyOp50
 70
     1
102
RTVSPropertyOp51
 70
     0
102
RTVSPropertyOp52
 70
     0
102
RTVSPropertyOp53
 70
     1
102
RTVSPropertyOp54
 70
     1
102
RTVSPropertyOp55
 70
     1
102
RTVSPropertyOp56
 70
     1
102
RTVSPropertyOp57
 70
     1
102
RTVSPropertyOp58
 70
     1
102
RTVSPropertyOp59
 70
     1
102
RTVSPropertyOp60
 70
     1
102
RTVSPropertyOp61
 70
     1
102
RTVSPropertyOp62
 70
     1
  0
XRECORD
  5
165EE
102
{ACAD_REACTORS
330
165ED
102
}
330
165ED
100
AcDbXrecord
280
     1
102
RTVSPost2010Prop28
280
     0
102
RTVSPost2010PropOp28
 70
     1
102
RTVSPost2010Prop29
280
     1
102
RTVSPost2010PropOp29
 70
     1
102
RTVSPost2010Prop30
280
     1
102
RTVSPost2010PropOp30
 70
     1
102
RTVSPost2010Prop31
280
     0
102
RTVSPost2010PropOp31
 70
     1
102
RTVSPost2010Prop32
280
     0
102
RTVSPost2010PropOp32
 70
     1
102
RTVSPost2010Prop33
280
     0
102
RTVSPost2010PropOp33
 70
     1
102
RTVSPost2010Prop34
280
     0
102
RTVSPost2010PropOp34
 70
     1
102
RTVSPost2010Prop35
280
     0
102
RTVSPost2010PropOp35
 70
     1
102
RTVSPost2010Prop36
280
     0
102
RTVSPost2010PropOp36
 70
     1
102
RTVSPost2010Prop37
 90
       50
102
RTVSPost2010PropOp37
 70
     1
102
RTVSPost2010Prop38
140
0.0
102
RTVSPost2010PropOp38
 70
     1
102
RTVSPost2010Prop39
140
1.0
102
RTVSPost2010PropOp39
 70
     1
102
RTVSPost2010Prop40
 90
        0
102
RTVSPost2010PropOp40
 70
     1
102
RTVSPost2010Prop41ColorIndex
 90
       18
102
RTVSPost2010Prop41ColorRGB
 90
        0
102
RTVSPost2010PropOp41
 70
     1
102
RTVSPost2010Prop42
 90
       50
102
RTVSPost2010PropOp42
 70
     1
102
RTVSPost2010Prop43
 90
        3
102
RTVSPost2010PropOp43
 70
     1
102
RTVSPost2010Prop44ColorIndex
 90
        5
102
RTVSPost2010Prop44ColorRGB
 90
      255
102
RTVSPost2010PropOp44
 70
     1
102
RTVSPost2010Prop45
280
     0
102
RTVSPost2010PropOp45
 70
     1
102
RTVSPost2010Prop46
 90
       50
102
RTVSPost2010PropOp46
 70
     1
102
RTVSPost2010Prop47
 90
       50
102
RTVSPost2010PropOp47
 70
     1
102
RTVSPost2010Prop48
 90
       50
102
RTVSPost2010PropOp48
 70
     1
102
RTVSPost2010Prop49
280
     0
102
RTVSPost2010PropOp49
 70
     1
102
RTVSPost2010Prop50
 90
       50
102
RTVSPost2010PropOp50
 70
     1
102
RTVSPost2010Prop51ColorIndex
 90
      256
102
RTVSPost2010Prop51ColorRGB
 90
-16777216
102
RTVSPost2010PropOp51
 70
     0
102
RTVSPost2010Prop52
140
1.0
102
RTVSPost2010PropOp52
 70
     0
102
RTVSPost2010Prop53
 90
        2
102
RTVSPost2010PropOp53
 70
     1
102
RTVSPost2010Prop54
  1
strokes_ogs.tif
102
RTVSPost2010PropOp54
 70
     1
102
RTVSPost2010Prop55
280
     0
102
RTVSPost2010PropOp55
 70
     1
102
RTVSPost2010Prop56
140
1.0
102
RTVSPost2010PropOp56
 70
     1
102
RTVSPost2010Prop57
140
1.0
102
RTVSPost2010PropOp57
 70
     1
102
RTVSPropertyOp0
 70
     1
102
RTVSPropertyOp1
 70
     1
102
RTVSPropertyOp2
 70
     1
102
RTVSPropertyOp3
 70
     1
102
RTVSPropertyOp4
 70
     1
102
RTVSPropertyOp5
 70
     1
102
RTVSPropertyOp6
 70
     1
102
RTVSPropertyOp7
 70
     1
102
RTVSPropertyOp8
 70
     1
102
RTVSPropertyOp9
 70
     1
102
RTVSPropertyOp10
 70
     1
102
RTVSPropertyOp11
 70
     1
102
RTVSPropertyOp12
 70
     1
102
RTVSPropertyOp13
 70
     1
102
RTVSPropertyOp14
 70
     1
102
RTVSPropertyOp15
 70
     1
102
RTVSPropertyOp16
 70
     1
102
RTVSPropertyOp17
 70
     1
102
RTVSPropertyOp18
 70
     1
102
RTVSPropertyOp19
 70
     1
102
RTVSPropertyOp20
 70
     1
102
RTVSPropertyOp21
 70
     1
102
RTVSPropertyOp22
 70
     1
102
RTVSPropertyOp23
 70
     1
102
RTVSPropertyOp24
 70
     1
102
RTVSPropertyOp25
 70
     1
102
RTVSPropertyOp26
 70
     1
102
RTVSPropertyOp27
 70
     1
102
RTVSPropertyOp28
 70
     1
102
RTVSPropertyOp29
 70
     1
102
RTVSPropertyOp30
 70
     1
102
RTVSPropertyOp31
 70
     1
102
RTVSPropertyOp32
 70
     1
102
RTVSPropertyOp33
 70
     1
102
RTVSPropertyOp34
 70
     1
102
RTVSPropertyOp35
 70
     1
102
RTVSPropertyOp36
 70
     1
102
RTVSPropertyOp37
 70
     1
102
RTVSPropertyOp38
 70
     1
102
RTVSPropertyOp39
 70
     1
102
RTVSPropertyOp40
 70
     1
102
RTVSPropertyOp41
 70
     1
102
RTVSPropertyOp42
 70
     1
102
RTVSPropertyOp43
 70
     1
102
RTVSPropertyOp44
 70
     1
102
RTVSPropertyOp45
 70
     1
102
RTVSPropertyOp46
 70
     1
102
RTVSPropertyOp47
 70
     1
102
RTVSPropertyOp48
 70
     1
102
RTVSPropertyOp49
 70
     1
102
RTVSPropertyOp50
 70
     1
102
RTVSPropertyOp51
 70
     0
102
RTVSPropertyOp52
 70
     0
102
RTVSPropertyOp53
 70
     1
102
RTVSPropertyOp54
 70
     1
102
RTVSPropertyOp55
 70
     1
102
RTVSPropertyOp56
 70
     1
102
RTVSPropertyOp57
 70
     1
102
RTVSPropertyOp58
 70
     1
102
RTVSPropertyOp59
 70
     1
102
RTVSPropertyOp60
 70
     1
102
RTVSPropertyOp61
 70
     1
102
RTVSPropertyOp62
 70
     1
  0
XRECORD
  5
165F6
102
{ACAD_REACTORS
330
165F5
102
}
330
165F5
100
AcDbXrecord
280
     1
102
RTVSPost2010Prop28
280
     0
102
RTVSPost2010PropOp28
 70
     1
102
RTVSPost2010Prop29
280
     1
102
RTVSPost2010PropOp29
 70
     1
102
RTVSPost2010Prop30
280
     1
102
RTVSPost2010PropOp30
 70
     1
102
RTVSPost2010Prop31
280
     0
102
RTVSPost2010PropOp31
 70
     1
102
RTVSPost2010Prop32
280
     0
102
RTVSPost2010PropOp32
 70
     1
102
RTVSPost2010Prop33
280
     0
102
RTVSPost2010PropOp33
 70
     1
102
RTVSPost2010Prop34
280
     0
102
RTVSPost2010PropOp34
 70
     1
102
RTVSPost2010Prop35
280
     0
102
RTVSPost2010PropOp35
 70
     1
102
RTVSPost2010Prop36
280
     0
102
RTVSPost2010PropOp36
 70
     1
102
RTVSPost2010Prop37
 90
       50
102
RTVSPost2010PropOp37
 70
     1
102
RTVSPost2010Prop38
140
0.0
102
RTVSPost2010PropOp38
 70
     1
102
RTVSPost2010Prop39
140
1.0
102
RTVSPost2010PropOp39
 70
     1
102
RTVSPost2010Prop40
 90
        0
102
RTVSPost2010PropOp40
 70
     1
102
RTVSPost2010Prop41ColorIndex
 90
       18
102
RTVSPost2010Prop41ColorRGB
 90
        0
102
RTVSPost2010PropOp41
 70
     1
102
RTVSPost2010Prop42
 90
       50
102
RTVSPost2010PropOp42
 70
     1
102
RTVSPost2010Prop43
 90
        3
102
RTVSPost2010PropOp43
 70
     1
102
RTVSPost2010Prop44ColorIndex
 90
        5
102
RTVSPost2010Prop44ColorRGB
 90
      255
102
RTVSPost2010PropOp44
 70
     1
102
RTVSPost2010Prop45
280
     0
102
RTVSPost2010PropOp45
 70
     1
102
RTVSPost2010Prop46
 90
       50
102
RTVSPost2010PropOp46
 70
     1
102
RTVSPost2010Prop47
 90
       50
102
RTVSPost2010PropOp47
 70
     1
102
RTVSPost2010Prop48
 90
       50
102
RTVSPost2010PropOp48
 70
     1
102
RTVSPost2010Prop49
280
     0
102
RTVSPost2010PropOp49
 70
     1
102
RTVSPost2010Prop50
 90
       50
102
RTVSPost2010PropOp50
 70
     1
102
RTVSPost2010Prop51ColorIndex
 90
      256
102
RTVSPost2010Prop51ColorRGB
 90
-16777216
102
RTVSPost2010PropOp51
 70
     0
102
RTVSPost2010Prop52
140
1.0
102
RTVSPost2010PropOp52
 70
     0
102
RTVSPost2010Prop53
 90
        2
102
RTVSPost2010PropOp53
 70
     1
102
RTVSPost2010Prop54
  1
strokes_ogs.tif
102
RTVSPost2010PropOp54
 70
     1
102
RTVSPost2010Prop55
280
     0
102
RTVSPost2010PropOp55
 70
     1
102
RTVSPost2010Prop56
140
1.0
102
RTVSPost2010PropOp56
 70
     1
102
RTVSPost2010Prop57
140
1.0
102
RTVSPost2010PropOp57
 70
     1
102
RTVSPropertyOp0
 70
     1
102
RTVSPropertyOp1
 70
     1
102
RTVSPropertyOp2
 70
     1
102
RTVSPropertyOp3
 70
     1
102
RTVSPropertyOp4
 70
     1
102
RTVSPropertyOp5
 70
     1
102
RTVSPropertyOp6
 70
     1
102
RTVSPropertyOp7
 70
     1
102
RTVSPropertyOp8
 70
     1
102
RTVSPropertyOp9
 70
     1
102
RTVSPropertyOp10
 70
     1
102
RTVSPropertyOp11
 70
     1
102
RTVSPropertyOp12
 70
     1
102
RTVSPropertyOp13
 70
     1
102
RTVSPropertyOp14
 70
     1
102
RTVSPropertyOp15
 70
     1
102
RTVSPropertyOp16
 70
     1
102
RTVSPropertyOp17
 70
     1
102
RTVSPropertyOp18
 70
     1
102
RTVSPropertyOp19
 70
     1
102
RTVSPropertyOp20
 70
     1
102
RTVSPropertyOp21
 70
     1
102
RTVSPropertyOp22
 70
     1
102
RTVSPropertyOp23
 70
     1
102
RTVSPropertyOp24
 70
     1
102
RTVSPropertyOp25
 70
     1
102
RTVSPropertyOp26
 70
     1
102
RTVSPropertyOp27
 70
     1
102
RTVSPropertyOp28
 70
     1
102
RTVSPropertyOp29
 70
     1
102
RTVSPropertyOp30
 70
     1
102
RTVSPropertyOp31
 70
     1
102
RTVSPropertyOp32
 70
     1
102
RTVSPropertyOp33
 70
     1
102
RTVSPropertyOp34
 70
     1
102
RTVSPropertyOp35
 70
     1
102
RTVSPropertyOp36
 70
     1
102
RTVSPropertyOp37
 70
     1
102
RTVSPropertyOp38
 70
     1
102
RTVSPropertyOp39
 70
     1
102
RTVSPropertyOp40
 70
     1
102
RTVSPropertyOp41
 70
     1
102
RTVSPropertyOp42
 70
     1
102
RTVSPropertyOp43
 70
     1
102
RTVSPropertyOp44
 70
     1
102
RTVSPropertyOp45
 70
     1
102
RTVSPropertyOp46
 70
     1
102
RTVSPropertyOp47
 70
     1
102
RTVSPropertyOp48
 70
     1
102
RTVSPropertyOp49
 70
     1
102
RTVSPropertyOp50
 70
     1
102
RTVSPropertyOp51
 70
     0
102
RTVSPropertyOp52
 70
     0
102
RTVSPropertyOp53
 70
     1
102
RTVSPropertyOp54
 70
     1
102
RTVSPropertyOp55
 70
     1
102
RTVSPropertyOp56
 70
     1
102
RTVSPropertyOp57
 70
     1
102
RTVSPropertyOp58
 70
     1
102
RTVSPropertyOp59
 70
     1
102
RTVSPropertyOp60
 70
     1
102
RTVSPropertyOp61
 70
     1
102
RTVSPropertyOp62
 70
     1
  0
ENDSEC
  0
EOF
